PrimaNota.ru - самый крупный в мире бесплатный архив песенных текстов, аккордов, табулатур и нот


Liquido - Flip To Play - текст песни, таба, видео

Регистрация Запомнить меня
Войти через:  Facebook Google Twitter Vk Yandex Mail.ru

Liquido - Flip To Play - текст песни, таба, видео

Печатать
Просмотров: 127
Here are the guitar tabs for "Flip to play" by Liquido. It's pretty easy. At the bottom 
of the page you can find the lyrics.
Have fun and pls rate and comment ;)

Artist: Liquido
Album: Float
Song: Flip to play
Tunding: Standart (EADGBe)


Intro:
e|-------------------------------------------------------------------|
B|-------------------------------------------------------------------|
G|-3-3-3-------------7-5---------------------------------------------|
D|-3-3-3-3-3-4-5-5-5-7-5---------------------------------------------|
A|-1-1-1-3-3-4-5-5-5-5-3---------------------------------------------|
E|-------1-1-2-3-3-3-------------------------------------------------|

Vers:
e|-------------------------------------------------------------------|
B|-------------------------------------------------------------------|
G|-3-3-3-------------7-5---------------------------------------------|
D|-3-3-3-3-3-4-5-5-5-7-5---------------------------------------------|
A|-1-1-1-3-3-4-5-5-5-5-3---------------------------------------------|
E|-------1-1-2-3-3-3-------------------------------------------------|

Refrain:
e|-------------------------------------------------------------------|
B|-------------------------------------------------------------------|
G|-3-----------------------------------------------------------------|
D|-3------7------5------3--------------------------------------------|
A|-1------7------5------3--------------------------------------------|
E|--------5------3------1--------------------------------------------|

Solo:                                            x5 after the 5th time:
e|-----------------------------------------------|-------------------|
B|-----------------------------------------------|-------------------|
G|-2--3--5--3--2--3-5-3--2--3--5--3--2-3-5-3-2---|-7-7-7-7-7-7-7-7---|
D|-----------------------------------------------|-------------------|
A|-----------------------------------------------|-------------------|
E|-----------------------------------------------|-------------------|

Outro is the same like the Intro

Order:

Intro x4
Vers x10
Refrain x4
Vers x10
Refrain x5
Vers x2
Solo
Refrain x4
Outro (=Intro) x3 (but you can play it as often as you want to)

-------------------------------------------------------------------------------

The Lyrics:

what now
some people say you're so cold
but listen
get that
I cannot merely freeze
she said
how come
your body's aching so bad
but no-one now
can say they've got the guts
or what is the term that they use for such things?
well, nevermind
I'm sure
somebody wrote a song about it…
got it?
that mindappearing meltdown
so I say you
better watch me now, honey
on purpose getting nuts

and she calls my name
as sweet as she can
and she rules the game
while I will break away
and you know it
and blow it
and throw it all away
and she'll feed that
and see that
I flip myself to play

what now
you cannot break yourself and say so
but guess what
I cannot nearly breathe
so all I can
say is that I find you quite attractive, honey
but, I'm sure somebody wrote a book about it…
got it?
and may I just ask
what if
I'd never noticed you at all?

and she calls my name
as sweet as she can
and she rules the game
while I will break away
and you know it
and blow it
and throw it all away
and she'll feed that
and see that
I flip myself to play [2x]
Добавлено: 28.07.2012
Другие материалы по этой песне:
  • Аккорды и текст

Страница создана 28.07.2012
http://primanota.ru/liquido/flip-to-play-chords.htm
Привет, Гость.
Предлагаем пройти революционный курс по гитаре.
Подарок от PrimaNota.Ru, забирай!