PrimaNota.ru - самый крупный в мире бесплатный архив песенных текстов, аккордов, табулатур и нот


Liquid Tension Experiment - Osmosis - бас-таба, видео

Регистрация Запомнить меня
Войти через:  Facebook Google Twitter Vk Yandex Mail.ru

Liquid Tension Experiment - Osmosis - бас-таба, видео

Печатать
Просмотров: 134
Авторы музыки: Liquid Tension Experiment

The Main Riff is basically this:

|--------------------12\------|
|------------10------14\------|
|0*---10/12-----12------------|
|-----------------------------|

|--------------------12\--9\--|
|------------10------14\--10\-|
|0*---10/12-----12------------|
|-----------------------------|

(* The open A changes to 8 and then 5 for the F and D (The first F occurs at 0:35, and 
first D at 1:28).

(F)

|--------------------12\------|
|------------10------14\------|
|8*---10/12-----12------------|
|-----------------------------|

|--------------------12\--9\--|
|----------10--------14\--10\-|
|8*---10/12-----12------------|
|-----------------------------|

(D)

|--------------------12\------|
|------------10------14\------|
|5*---10/12-----12------------|
|-----------------------------|

|--------------------12\--9\--|
|------------10------14\--10\-|
|5*---10/12-----12------------|
|-----------------------------|
Добавлено: 21.02.2012
Другие материалы по этой песне:
  • Аккорды и текст

Страница создана 21.02.2012
http://primanota.ru/liquid-tension-experiment/osmosis-chords.htm
Привет, Гость.
Предлагаем пройти революционный курс по гитаре.
Подарок от PrimaNota.Ru, забирай!