PrimaNota.ru - самый крупный в мире бесплатный архив песенных текстов, аккордов, табулатур и нот


Lior - Sitting With A Stranger - таба, видео

Регистрация Запомнить меня
Войти через:  Facebook Google Twitter Vk Yandex Mail.ru

Lior - Sitting With A Stranger - таба, видео

Печатать
Просмотров: 87
|=========================|
|          Lior           |
| Sitting With A Stranger |
|=========================|

This is the first song I've ever tabbed, and it took me about a day for the chorus 
and verse and another day for the solo.
I think it's pretty accurate :)
Please tell me what you think! eitan_muir@yahoo.com.au :)

++Update 22nd Feb 2010: Just fixing up a few things in
the solo and chorus ;)++

++++Update 30th March 2010: I made a breakthrough in the Verse,
it sounds pretty bang-on now ;)++++

enjoy! :)

****
Tuning: Half a Step Down (eb,Bb,Gb,Db,Ab,Eb)

[] = anything between brackets is played on bass
~  = Whammy/Vibrato
/  = slide
h  = hammer on/off
p  = pull off
****

Verse (With Gain)
++++Updated++++
eb|----------------------------------------------------------------|
Bb|-----------------------------------------6--------------8~~-----|
Gb|-----------9--10----------10-9-------------7----------6~~-------|
Db|-----------12-12----------12-12---------------------------------|
Ab|[---5--5-----------3--3-----------1--1---------0--0------------]|
Eb|----------------------------------------------------------------|

End Verse With:
eb|------------------------------------------------------|
Bb|-----------------------------------------6------------|
Gb|-----------9--10----------10-9-------------7--6~~-----|
Db|-----------12-12----------12-12-----------------------|
Ab|[---5--5-----------3--3-----------1--1---------------]|
Eb|------------------------------------------------------|

****

Chorus:
++A few updates here and there, so be careful
if you've read this tab before++
eb|------5-----5-----5-----5--------8-----------8------|
Bb|---------6-----------6--------7-----7-----7-----7---|
Gb|---7-----------6-----------5-----------5------------|
Db|----------------------------------------------------|
Ab|----------------------------------------------------|
Eb|----------------------------------------------------|

eb|------9-----9-----9-----9-----9-----9-----8-----8---|
Bb|---------9-----------9-----------8-----------8------|
Gb|---8-----------8-----------6-----------5------------|
Db|----------------------------------------------------|
Ab|----------------------------------------------------|
Eb|----------------------------------------------------|

****

Bridge
(Play chords as you would in normal tuning, eg. F# here is actually F, but
have your hand in the position for what F# is in Standard Tuning [E major
barred on the second fret]. You know what I mean..)

F#
And love in a desert
E                               D
Will always be wondering what it's missing out on
F#
And peace in infested waters
E                       D
Can never make itself at home
D
So c'mon

****

Solo:
++A few more hammer-ons than I thought when I first posted the tab ;)++
eb|----------------------------------------------------------------|
Bb|-------------8-10----10p8-8h10----8-----------------------------|
Gb|--6h7-7-9-10-------------------10---9----10p9-9h10----9-10-7----|
Db|----------------------------------------------------------------|
Ab|----------------------------------------------------------------|
Eb|----------------------------------------------------------------|

eb|----------------------------------------------------------------|
Bb|-----------8-9h10--------------------8-10----10p8-8h10----8-----|
Gb|--6h7-9-10--------------6h7-7-9-10---------------------10---9---|
Db|----------------------------------------------------------------|
Ab|----------------------------------------------------------------|
Eb|----------------------------------------------------------------|

eb|------------------------------------------------------|
Bb|----------------8--8-8/10-10----8---------------------|
Gb|--9h10p9-7-9-10--------------10---9-10-7--------------|
Db|------------------------------------------------------|
Ab|------------------------------------------------------|
Eb|------------------------------------------------------|

eb|-------------------------------------------------------------|
Bb|-------------8-10-----10p8-8h10----8--------8p6-6h8----------|
Gb|--6h7-7-9-10--------------------10---9--------------9-10-7---|
Db|-------------------------------------------------------------|
Ab|-------------------------------------------------------------|
Eb|-------------------------------------------------------------|

eb|-------------------------------------------------------------|
Bb|-----------8-9h10----------------8-10----10p8-8h10----8------|
Gb|--6h7-9-10------------6h7-7-9-10-------------------10---9----|
Db|-------------------------------------------------------------|
Ab|-------------------------------------------------------------|
Eb|-------------------------------------------------------------|

eb|--------------------------------|
Bb|--8---------8-------------------|
Gb|----9/10-10---9--7~~--6~~-------|
Db|--------------------------------|
Ab|--------------------------------|
Eb|--------------------------------|

(I tabbed the solo on an acoustic, so I'm not sure whether there are more
slides and hammer-ons or if it's just Delay and Reverb.)

****

Outro (same principle as the Bridge)
F#
Cause if this love is our home
E                       D                   F# (no 1st string)
Then why am I trying to break down the walls?


Hope that helped ;)
Please Rate and Comment!!!
Добавлено: 22.06.2012
Другие материалы по этой песне:
  • Аккорды и текст

Страница создана 22.06.2012
http://primanota.ru/lior/sitting-with-a-stranger-chords.htm
Привет, Гость.
Предлагаем пройти революционный курс по гитаре.
Подарок от PrimaNota.Ru, забирай!