PrimaNota.ru - самый крупный в мире бесплатный архив песенных текстов, аккордов, табулатур и нот


Lior - Autumn Flow - таба, видео

Регистрация Запомнить меня
Войти через:  Facebook Google Twitter Vk Yandex Mail.ru

Lior - Autumn Flow - таба, видео

Печатать
Просмотров: 121
-------------------------------------------------------------------------------
                            AUTUMN FLOW - Lior
-------------------------------------------------------------------------------

Email: voodoo_doll85@hotmail.com

Tuning: DADGAD
Capo 3 (notes relative to capo)

This song is damn tricky - the alternate tuning and capo but is the closest version to 
original you'll find on the internet! Enjoy!

Intro/Verse

d|------------------------------------------|
A|--------0---0---0-----0---0---0---0-------|
G|------0-----0---0---0-----0---0---0-------|
D|--2/4-----2---0---------------------------|
A|------------------3-----2---0-------------|
D|--------------------------------3---2b-0--|

Bridge

d|--0---0--0--0----0---0--0--0----0---0--0--0-------0--------0-|
A|--0-0--0--0--0---0-0--0--0--0---0-0--0--0--0----0--0---2/4---|
G|-----0--0--0--0-----0--0--0--0-----0--0--0--0----0--0--------|
D|-------------------------------------------------------------|
A|-----------------------------------------------0-------------|
D|--5--------------4--------------2----------------------------|


d|--0---0--0--0----0---0--0--0----0---0--0--0----0-----|
A|--0-0--0--0--0---0-0--0--0--0---0-0--0--0--0---0-----|
G|-----0--0--0--0-----0--0--0--0-----0--0--0--0--------|
D|-----------------------------------------------------|
A|-----------------------------------------------------|
D|--5--------------4--------------3--------------2-----|

Continue with Verse and bridge

Followed by this section

d|--0---0---0--0---0---0--------------------------------|
A|--0-0--0-0---0-0--0-0-----------------------4b-2-0----|
G|-----0--0-------0--0----------------------0-----------|
D|-------------------------0-0-0-0-----0---0---------0--|
A|-------------------------0-0-0-0-2/4----0-------------|
D|--4----------2-----------0-0-0-0-------0--------------|


Continue again with verse and bridge till end
Добавлено: 08.05.2012
Другие материалы по этой песне:
  • Аккорды и текст

Страница создана 08.05.2012
http://primanota.ru/lior/autumn-flow-chords.htm
Привет, Гость.
Предлагаем пройти революционный курс по гитаре.
Подарок от PrimaNota.Ru, забирай!