PrimaNota.ru - самый крупный в мире бесплатный архив песенных текстов, аккордов, табулатур и нот


Lions - Machine - бас-таба, видео

Регистрация Запомнить меня
Войти через:  Facebook Google Twitter Vk Yandex Mail.ru

Lions - Machine - бас-таба, видео

Печатать
Просмотров: 79
-------------------------------------------------------------------------------
                             MACHINE - Lions
-------------------------------------------------------------------------------
Tabbed by: dshodaw 
E-mail: dploeg88@yahoo.com

Tuning: Drop D

First tab for this song by Lions, even before guitar tabs... Awesome! :) Please note, the timing for the bridge
is a little off, so be sure to get that right by listening to the original song.

Intro:
G:----------------|----------------|----------------|----------------|
D:----------------|----------------|----------------|----------------|
A:----------------|----------------|----------------|----------------|
D:00000-----------|00000-----------|00000-----------|00000-----------|

Verse 1:
G:----------------|----------------|----------------|----------------|
D:----------------|----------------|----------------|----------------|
A:---------5553333|---------5553333|---------5553333|---------5553333|
D:00000-----------|00000-----------|00000-----------|00000-----------|

G:----------------|----------------|
D:----------------|----------------|
A:1-1-1-1-1-1-1-1-|1-1-1-1-1-1-1-1-|
D:----------------|----------------|

G:----------------|----------------|----------------|----------------|
D:----------------|----------------|----------------|----------------|
A:---------5553333|---------5553333|---------5553333|---------5553333|
D:00000-----------|00000-----------|00000-----------|00000-----------|

G:----------------|----------------|
D:----------------|----------------|
A:1-1-1-1-1-1-1-1-|1-1-1-1-1-1-1-1-|
D:----------------|----------------|

Chorus:
G:----------------|----------------|----------------|----------------|
D:----------------|----------------|----------------|----------------|
A:---------110101-|--3-3---53-6-363|---------110101-|--3-3---53-6-363|
D:0---0-----------|0---------------|0---0-----------|0---------------|

G:----------------|----------------|----------------|----------------|
D:----------------|----------------|----------------|----------------|
A:---------110101-|--3-3---53-6-363|---------110101-|--3-3---53-6-363|
D:0---0-----------|0---------------|0---0-----------|0---------------|

Interlude:
G:----------------|----------------|----------------|----------------|
D:----------------|----------------|----------------|----------------|
A:----------------|----------------|----------------|----------------|
D:00000-----------|00000-----------|00000-----------|00000-----------|

Verse 2:
G:----------------|----------------|----------------|----------------|
D:----------------|----------------|----------------|----------------|
A:---------5553333|---------5553333|---------5553333|---------5553333|
D:00000-----------|00000-----------|00000-----------|00000-----------|

G:----------------|----------------|----------------|----------------|
D:----------------|----------------|----------------|----------------|
A:---------5553333|---------5553333|---------5553333|---------5553333|
D:00000-----------|00000-----------|00000-----------|00000-----------|

G:----------------|----------------|
D:----------------|----------------|
A:1-1-1-1-1-1-1-1-|1-1-1-1-1-1-1-1-|
D:----------------|----------------|

Chorus repeats:
G:----------------|----------------|----------------|----------------|
D:----------------|----------------|----------------|----------------|
A:---------110101-|--3-3---53-6-363|---------110101-|--3-3---53-6-363|
D:0---0-----------|0---------------|0---0-----------|0---------------|

G:----------------|----------------|----------------|----------------|
D:----------------|----------------|----------------|----------------|
A:---------110101-|--3-3---53-6-363|---------110101-|--3-3---53-6-363|
D:0---0-----------|0---------------|0---0-----------|0---------------|

Bridge:
G:----------------|----------------|----------------|----------------|
D:----------------|----------------|----------------|----------------|
A:----5------5-3-5|----5------6-363|----5------5-3-5|----5------6-363|
D:0-------00------|-00-----01------|0-------00------|-00-----01------|

G:----------------|----------------|----------------|----------------|----------------|
D:----------------|----------------|----------------|----------------|----------------|
A:----5------5-3-5|----5------6-363|----5------5-3-5|----5------6-363|----------------|
D:0-------00------|-00-----01------|0-------00------|-00-----01------|0-(let ring)----|

Chorus 3:
G:----------------|----------------|----------------|----------------|
D:----------------|----------------|----------------|----------------|
A:---------110101-|--3-3---53-6-363|---------110101-|--3-3---53-6-363|
D:0---0-----------|0---------------|0---0-----------|0---------------|

G:----------------|----------------|----------------|----------------|
D:----------------|----------------|----------------|----------------|
A:---------110101-|--3-3---53-6-363|---------110101-|--3-3---53-6-363|
D:0---0-----------|0---------------|0---0-----------|0---------------|

G:----------------|----------------|
D:----------------|----------------|
A:----------------|----------------|
D:0-(let ring)----|----------------|

Enjoy and Rock On \,,/

dshodaw

| /  slide up
| \  slide down
| h  hammer-on
| p  pull-off
| ~  vibrato
| +  harmonic
| x  Mute note
===============================================================================
Добавлено: 08.08.2015
Другие материалы по этой песне:
  • Аккорды и текст

Страница создана 08.08.2015
http://primanota.ru/lions/machine-chords.htm
Привет, Гость.
Предлагаем пройти революционный курс по гитаре.
Подарок от PrimaNota.Ru, забирай!