PrimaNota.ru - самый крупный в мире бесплатный архив песенных текстов, аккордов, табулатур и нот


Lion - The Transformers Theme - таба, видео

Регистрация Запомнить меня
Войти через:  Facebook Google Twitter Vk Yandex Mail.ru

Lion - The Transformers Theme - таба, видео

Печатать
Просмотров: 155
----------------------------------------------------------------------------
                        The Transformers Theme - Lion
----------------------------------------------------------------------------
Tabbed by: ironmanben
Email: bentrooper@gmail.com

Tuning: Drop D (e B G D A D)

this should be about 99% correct.  I worked hard on this, and this is the way Lion plays it.

intro x7
(fade in)
e|---------|
B|-----66--|
G|--55---5-|
D|-3-------|
A|---------|
D|---------|

after the 7th time...
e|---|
B|---|
G|---|
D|---|
A|---|
D|-3-|

riff 1:
e|--------------------------|------------------------|
B|--------------------------|------------------------|
G|--------------------------|------------------------|
D|-3xx-3x-1-3xx-1-3-1-3-1-4-|-3xx-3x-1-3xx-1-3-1-6-1-|
A|-3xx-3x-1-3xx-1-3-1-3-1-4-|-3xx-3x-1-3xx-1-3-1-6-1-|
D|-3xx-3x-1-3xx-1-3-1-3-1-4-|-3xx-3x-1-3xx-1-3-1-6-1-|
more riff 1
e|----------------------|-------------|
B|----------------------|-------------|
G|----------------------|-------------|
D|-3xx-3x-1-3xx---------|-3xx-3x-1-6~-|
A|-3xx-3x-1-3xx--3-4-3--|-3xx-3x-1-6~-|
D|-3xx-3x-1-3xx-3-3-3-3-|-3xx-3x-1-6~-|

verse
e|---------------------------------------------------------|
B|-6~------------------------------------------------------|
G|-5~------------------------------------------------------|
D|-3~-----------------------------3xx-3x-1-3xx-1-3-1-3-1-6-|
A|--------------------------------3xx-3x-1-3xx-1-3-1-3-1-6-|
D|--------------------------------3xx-3x-1-3xx-1-3-1-3-1-6-|
     Something evil's watching over you...

still the verse:
e|------------------------------------------|
B|-4~---------------------------------------|
G|-3~--------------------------3------------|
D|-1~--------------------------3------6---1-|
A|-----------------------------1------6---1-|
D|------------------------------------6---1-|
  coming from the sky above..

still the verse:
e|--------------------------|--------------------------|
B|--------------------------|--------------------------|
G|-----------4+-------------|--------------------------|
D|-3xx-3x-1-3---1-3-1-3-1-4-|-3xx-3x-1-3xx-1-3-1-3-1-6-|
A|-3xx-3x-1-3---1-3-1-3-1-4-|-3xx-3x-1-3xx-1-3-1-3-1-6-|
D|-3xx-3x-1-3---1-3-1-3-1-4-|-3xx-3x-1-3xx-1-3-1-3-1-6-|

still the verse:
e|----------------------------------------------|
B|-4~-------------------------------------------|
G|-3~-----------------------------3--------6--5-|
D|-1~-----------------------------3--1--6--6--5-|
A|--------------------------------1--1--6--4--3-|
D|-----------------------------------1--6-------|

chorus x2
e|----------------------|-----------------------------|
B|----------------------|-----------------------------|
G|----------------------|-----------------------------|
D|-3xx-3x-1-3xx---------|-3xx-3x-1-4~-----------------|
A|-3xx-3x-1-3xx--3-4-3--|-3xx-3x-1-4~-----------------|
D|-3xx-3x-1-3xx-3-3-3-3-|-3xx-3x-1-4(whammy bar down)-|


repeat the 1st, 2nd, and 4th parts of the verse exactly but do the 3rd part like this:
e|--------------------------|--------------------------|
B|--------------------------|--------------------------|
G|--------------------------|---5+(



	
	
Добавлено: 31.03.2012
Другие материалы по этой песне:

Страница создана 31.03.2012
http://primanota.ru/lion/the-transformers-theme-chords.htm
Привет, Гость.
Предлагаем пройти революционный курс по гитаре.
Подарок от PrimaNota.Ru, забирай!