PrimaNota.ru - самый крупный в мире бесплатный архив песенных текстов, аккордов, табулатур и нот


Linkin Park - Two Worlds - текст песни, таба, видео

Регистрация Запомнить меня
Войти через:  Facebook Google Twitter Vk Yandex Mail.ru

Linkin Park - Two Worlds - текст песни, таба, видео

Печатать
Просмотров: 391
I'm not sure, but i think that it's right!
Please rate this tab!!!
It's a really cool song!!!
Enjoy
---------------------------------------------------------------------------

Intro
1 guitar  Riff A
E---------------------------------------------------------------------------|
B----------------------------------------------------0----------------------|
G-----------0------------------------0-----------------0-----------------0--|
D--------4-----4------------------4-----------4-----------4----2-------4----|
A------2----------2-----2-----2-----------2-----------------2--------2------|
E---0----------------0-----3-----------0--------------------------3---------|

2 guitar
 Riff B
0:00-0:03
|-----|
|     |
E------|-------------------------------|
B------|-------------------------------|
G------|--------9/7-----------9/7------|
D-5b---|--7/9-----------7/9------------|
A------|-------------------------------|
E------|-------------------------------|

Verse Riff C
E---------------------------------------------------------------------------|
B------------------------------------------------0--------------------------|
G------------0--------------------------0----------0------------------0-----|
D--------4------4---------------------4--------4--------4----2-------4------|
A------2-----------2------2-------2---------2-------------2------2----------|
E---0------------------0------3-----------0--------------------3------------|

E---------------------------------------------------------------------------|
B---------------------------------------------------------0-----------------|
G------------0---------------------------0------------------0---------------|
D--------4------4---------------------4-----------4-----------4----2--------|
A------2-----------2------2-------2------------2-----------------2----------|
E---0------------------0------3--------------0------------------------------|

Chorus
 Riff D
E-----------------------------------------------------------------------------|
B-----------------------------------------------------------------------------|
G-----------------------------------------------------------------------------|
D-x-x-2-x--2-x--2-x----7-x---5--x-----2-2--2-x--2-x-2-x--7-x--5--x------------|
A-x-x-2-x--2-x--2-x----7-x---5--x-----2-2--2-x--2-x-2-x--7-x--5--x------------|
E-x-x-0-x--0-x--0-x ---5-x---3--x-----0-0--0-x--0-x-0-x--5-x--3--x------------|

Post-Chorus
Riff E
E-----------------------------------------------------------------------------------|
B-----------------------------------------------------------------------------------|
G-----------------------------------------------------------------------------------|
D--2-2-2-2-2-2-2-2---5-5-5-5-5-5-5-5--7-7-7-7-7-7-7-7--10-10-10-10-10-10-10-10------|
A--2-2-2-2-2-2-2-2---5-5-5-5-5-5-5-5---7-7-7-7-7-7-7-7--10-10-10-10-10-10-10-10-----|
E--0-0-0-0-0-0-0-0---3-3-3-3-3-3-3-3---5-5-5-5-5-5-5-5--8--8--8--8--8--8---8-8------|
P.M. ..............................................................................

Riff F
E------------------------/--------|
B------------------------/--------|
G------------------------/--------|
D--2-2---2-2---2-2---2-2-/--------|
A--2-2---2-2---2-2---2-2-/--------|
E--0-0---0-0---0-0---0-0-/--------|

Lyrics
Riff A with Riff B

Riff C
See I was once told
that...(.....)
Now I'm at the crossroads
Selling my soul
I've been laughed at
Slepped on and stepped on
Backstabbed twice but I always kept on

I'm falling
And I can hear my conscience calling
I see my life dissolving(...)
Why life's gotta be this way
It's the price we pay
Just to live another day

Riff D
Get yourself up, you're falling
Gotta get yourself up, get up, don't stop, you're falling

Riff C
She saw life's a bitch but I love her
Brother never judge a book by the cover
Same name but different faces
Same case but different places
Life's strange
Joy, pain
Sunshine, rain
Yo we've gotta maintain
Why life gotta be this way
It's the price we pay just to see another day

Riff D
Get yourself up, you're falling
Gotta get yourself up, get up, don't stop, you're falling (falling, falling, falling)

Riff E
You're living on a lie
Better realize you're falling down
You're living on a lie
Better get yourself together now
Better get up from the ground

Riff F
You're living on a lie (lie, lie, lie)
You're living on a lie (lie, lie, lie)

Riff C
It spill blood, sweat and tears
I crept on my knees
And begged for deaf ears
I wouldn't learn
Until I got burned
Every laugh was changed
That was the day it got turned
(???)
Some people change, others stay the same
Why life's gotta be this way
See it's the price we pay just to live another day

Riff D
Get yourself up you're falling
Gotta get yourself up, get up, don't stop, you're falling (falling, falling, falling)

Riff E
You're living on a lie
Better realize you're falling down
You're living on a lie
Better get yourself together now
Better get up from the ground
You're living on a lie
Better realize you're falling down
You're living on a lie
Better get yourself together now
Better get up from the ground
You're living on a lie
Better get yourself together now
Better get up from the ground

Riff F
You're livin on a lie (lie, lie, lie, lie)
You're livin on a lie (lie, lie, lie, lie)
You're livin on a lie (lie, lie, lie, lie)

Riff D
Get yourself up, you're falling
Gotta get yourself up get up, don't stop, you're falling
Get yourself up you're falling
Gotta get yourself up, get up, don't stop, you're falling

You're living on a lie 
Добавлено: 20.05.2012
Другие материалы по этой песне:
  • Аккорды и текст

Страница создана 12.05.2012
http://primanota.ru/linkin-park/two-worlds-chords.htm
Привет, Гость.
Предлагаем пройти революционный курс по гитаре.
Подарок от PrimaNota.Ru, забирай!