PrimaNota.ru - самый крупный в мире бесплатный архив песенных текстов, аккордов, табулатур и нот


Linkin Park - Tom - таба, видео

Регистрация Запомнить меня
Войти через:  Facebook Google Twitter Vk Yandex Mail.ru

Linkin Park - Tom - таба, видео

Печатать
Просмотров: 114


 this song is really easy

play this: 4 times at beginnig
E------19--16---------------------------------
B--14----------19--17--16--17-----------------
G---------------------------------------------
D---------------------------------------------
A---------------------------------------------
D---------------------------------------------

chorus:  2 times
E-----------------------------------
B-----------------------------------
G--6--7--2--4-----------------------
D--6--7--2--4-----------------------
A--4--7--2--0-----------------------
D-----------------------------------

pre chorus: 8 times
E--21-------------------------------
B------21--19--21-------------------
G-----------------------------------
D-----------------------------------
A-----------------------------------
D-----------------------------------
distalled

chorus:  twice
E-----------------------------------
B-----------------------------------
G--6--7--2--4-----------------------
D--6--7--2--4-----------------------
A--4--7--2--0-----------------------
D-----------------------------------



Добавлено: 07.11.2013
Другие материалы по этой песне:
  • Аккорды и текст

Страница создана 07.11.2013
http://primanota.ru/linkin-park/tom-chords.htm
Привет, Гость.
Предлагаем пройти революционный курс по гитаре.
Подарок от PrimaNota.Ru, забирай!