PrimaNota.ru - самый крупный в мире бесплатный архив песенных текстов, аккордов, табулатур и нот


Linkin Park - Soul Song - текст песни, таба, видео

Регистрация Запомнить меня
Войти через:  Facebook Google Twitter Vk Yandex Mail.ru

Linkin Park - Soul Song - текст песни, таба, видео

Печатать
Просмотров: 496
|-------------------------------------------------------------------|
|----------------------------Soul Song------------------------------|
|---------------------------Linkin Park-----------------------------|
|-------------------------------------------------------------------|

Album: Splitting the DNA (Disc 2)
Tabbed by: Fl0oD
Tuning: Standard

Note: The whole song should be played by strumming each chord.

Intro
e|--------3----------------------------|
B|--------3----------------------------|
G|--1--1-------------------------------|
D|--2--2-------------------------------|
A|--2--2--2----------------------------|
E|--------3----------------------------|

////////////////////////////////////////

Verse
e|--------3---3---3---3----------------|          |-3-3-3-3-3-|
B|--------3---3---3---3----------------|          |-3-3-3-3-3-|
G|--1--1-------------------------------|          |-----------|
D|--2--2-------------------------------|  x8 then |-----------|
A|--2--2--2---2---2---2----------------|          |-2-2-2-2-2-|
E|--------3---3---3---3----------------|          |-3-3-3-3-3-|

Chorus
e|--------3-3-3-3--2-2-2-2-2-----------|
B|--------3-3-3-3--3-3-3-3-3--1-1-1-1--|
G|--1--1-----------2-2-2-2-2--2-2-2-2--|
D|--2--2----------------------2-2-2-2--|
A|--2--2--2-2-2-2----------------------|
E|--------3-3-3-3----------------------|

e|--------3-3-3-3--2-2-2-2-2--3-3-3----|
B|--------3-3-3-3--3-3-3-3-3--3-3-3----|
G|--1--1-----------2-2-2-2-2-----------|
D|--2--2-------------------------------|  x2
A|--2--2--2-2-2-2-------------2-2-2----|
E|--------3-3-3-3-------------3-3-3----|

Post-Chorus
e|----------------------------3-3------|
B|----------------------------3-3------|
G|---2-2/5-4--5-4-2-0------------------|
D|---------------------4-5-7-----------|  x2
A|----------------------------2-2------|
E|----------------------------3-3------|

That's pretty much it. Then the song repeats. 
Not 100% sure on the Post-Chorus but it's as
close as I can tell. Any errors you notice
email them to me at alwaysanecho@gmail.com.
Добавлено: 26.02.2012
Другие материалы по этой песне:

Страница создана 26.02.2012
http://primanota.ru/linkin-park/soul-song-chords.htm
Привет, Гость.
Предлагаем пройти революционный курс по гитаре.
Подарок от PrimaNota.Ru, забирай!