PrimaNota.ru - самый крупный в мире бесплатный архив песенных текстов, аккордов, табулатур и нот


Linkin Park - Run away 4 string - бас-таба, видео

Регистрация Запомнить меня
Войти через:  Facebook Google Twitter Vk Yandex Mail.ru

Linkin Park - Run away 4 string - бас-таба, видео

Печатать
Просмотров: 153
Уроки эстрадного вокала в Санкт-Петербурге


(Intro)
G:-------------------|
D:-------------------|  x2
A:2-2/5-5------------|
E:--------3-3--5-5---|

(Verse I)
G:----------------------------|
D:----------------------------|
A:2---2---2---2---------------|
E:--3---3---3---3--0-3--0-3/5-|

(Chorus)
G:-------------------|
D:-------------------|  x4
A:2-2/5-5------------|
E:--------3-3--5-5---|

(Verse II)
G:-----------------------|
D:-----------------1p2---|
A:2---2---2--------------|
E:--3---3---3--0-3-----3-|

G:-------------------|
D:-------------------|  x4
A:2-2/5-5------------|
E:--------3-3--5-5---|

(Bridge)
G:------------------------------------------------|
D:------------------------------------------------|  x4
A:2-2-3-2-2---2-2-3-3-3---2-2-3-2-2---2-2-3-3-3---|
E:------------------------------------------------|

G:-------------------|
D:-------------------|  x8
A:2-2/5-5------------|
E:--------3-3--5-5---|

I'm not sure but i think the tabs are right ;)

Добавлено: 11.12.2013
Другие материалы по этой песне:
  • Аккорды и текст

Страница создана 11.12.2013
http://primanota.ru/linkin-park/run-away-4-string-chords.htm
Привет, Гость.
Предлагаем пройти революционный курс по гитаре.
Подарок от PrimaNota.Ru, забирай!