PrimaNota.ru - самый крупный в мире бесплатный архив песенных текстов, аккордов, табулатур и нот


Linkin Park - Point Of Autority - таба, видео

Регистрация Запомнить меня
Войти через:  Facebook Google Twitter Vk Yandex Mail.ru

Linkin Park - Point Of Autority - таба, видео

Печатать
Просмотров: 183
           Points of Authority    ( tabbed by sympho )          


                                  Linkin Park
Guitar Tab

Intro ( synth)

D#||-------|-------|-------|-------|-------|
A#||-------|-------|-------|-------|-------|
F#||-------|-------|-------|-------|-------|
C#||-------|-------|-------|-------|-------|
G#||-------|-------|-------|-------|-------|
C#||-------|-------|-------|-------|-------|


-------|-------|-------|
-------|-------|-------|
-------|-------|-------|
-------|-------|-------|
-------|-------|-------|
-------|-------|-------|

Start
              PM PM                  
  S S S S S S S  S  S S S S S S S S  
------------------------------------|
------------------------------------|
------------------------------------|
------------------------------------|
--2-x-2-x-2-3-x--x--x-0-2-x-2-3-x-0-|
--2-x-2-x-2-3-3--3--3-0-2-x-2-3-x-0-|


                     PM    PM     
  S S S S S S S S E  S  E  S  E   
---------------------------------|
---------------------------------|
---------------------------------|
---------------------------------|
--2-x-2-x-2-3-x---2-----0-----3--|
--2-x-2-x-2-3-x-0-2--2--0--0--3--|


              PM PM                  
  S S S S S S S  S  S S S S S S S S  
------------------------------------|
------------------------------------|
------------------------------------|
------------------------------------|
--2-x-2-x-2-3-x--x--x-0-2-x-2-3-x-0-|
--2-x-2-x-2-3-3--3--3-0-2-x-2-3-x-0-|


                     PM    PM           
  S S S S S S S S E  S  E  S  E         
---------------------------------|-----|
---------------------------------|-----|
---------------------------------|-----|
---------------------------------|-----|
--2-x-2-x-2-3-x---2-----0-----3--|-----|
--2-x-2-x-2-3-x-0-2--2--0--0--3--|-----|


                    PM PM                  
        S S S S S S S  S  S S S S S S S S  
-----|------------------------------------|
-----|------------------------------------|
-----|------------------------------------|
-----|------------------------------------|
-----|--2-x-2-x-2-3-x--x--x-0-2-x-2-3-x-0-|
-----|--2-x-2-x-2-3-3--3--3-0-2-x-2-3-x-0-|


                     PM    PM     
  S S S S S S S S E  S  E  S  E   
---------------------------------|
---------------------------------|
---------------------------------|
---------------------------------|
--2-x-2-x-2-3-x---2-----0-----3--|
--2-x-2-x-2-3-x-0-2--2--0--0--3--|


              PM PM                  
  S S S S S S S  S  S S S S S S S S  
------------------------------------|
------------------------------------|
------------------------------------|
------------------------------------|
--2-x-2-x-2-3-x--x--x-0-2-x-2-3-x-0-|
--2-x-2-x-2-3-3--3--3-0-2-x-2-3-x-0-|


                     PM    PM     
  S S S S S S S S E  S  E  S  E   
---------------------------------|
---------------------------------|
---------------------------------|
---------------------------------|
--2-x-2-x-2-3-x---2-----0-----3--|
--2-x-2-x-2-3-x-0-2--2--0--0--3--|


              PM PM                  
  S S S S S S S  S  S S S S S S S S  
------------------------------------|
------------------------------------|
------------------------------------|
------------------------------------|
--2-x-2-x-2-3-x--x--x-0-2-x-2-3-x-0-|
--2-x-2-x-2-3-3--3--3-0-2-x-2-3-x-0-|


  S S S S S S S S E  S E  S E   
-------------------------------|
-------------------------------|
-------------------------------|
-------------------------------|
--2-x-2-x-2-3-x---2--L-0--L-3--|
--2-x-2-x-2-3-x-0-2--L-0--L-3--|

(chorus)
  W                   W                 
-------------------|-------------------|
-------------------|-------------------|
-------------------|-------------------|
-------------------|--5----------------|
--2----------------|--3----------------|
--2----------------|--5----------------|


  W                   W                 
-------------------|-------------------|
-------------------|-------------------|
-------------------|-------------------|
-------------------|--5----------------|
--2----------------|--3----------------|
--2----------------|--5----------------|


  W                   W                 
-------------------|-------------------|
-------------------|-------------------|
-------------------|-------------------|
-------------------|--5----------------|
--2----------------|--3----------------|
--2----------------|--5----------------|


  W                   H        E  S E  S E   
-------------------|------------------------|
-------------------|------------------------|
-------------------|------------------------|
-------------------|--5---------------------|
--2----------------|--3--------2----0----3--|
--2----------------|--5--------2--2-0--0-3--|


              PM PM                  
  S S S S S S S  S  S S S S S S S S  
------------------------------------|
------------------------------------|
------------------------------------|
------------------------------------|
--2-x-2-x-2-3-x--x--x-0-2-x-2-3-x-0-|
--2-x-2-x-2-3-3--3--3-0-2-x-2-3-x-0-|


                     PM    PM           
  S S S S S S S S E  S  E  S  E         
---------------------------------|-----|
---------------------------------|-----|
---------------------------------|-----|
---------------------------------|-----|
--2-x-2-x-2-3-x---2-----0-----3--|-----|
--2-x-2-x-2-3-x-0-2--2--0--0--3--|-----|


                    PM PM                  
        S S S S S S S  S  S S S S S S S S  
-----|------------------------------------|
-----|------------------------------------|
-----|------------------------------------|
-----|------------------------------------|
-----|--2-x-2-x-2-3-x--x--x-0-2-x-2-3-x-0-|
-----|--2-x-2-x-2-3-3--3--3-0-2-x-2-3-x-0-|


                     PM    PM     
  S S S S S S S S E  S  E  S  E   
---------------------------------|
---------------------------------|
---------------------------------|
---------------------------------|
--2-x-2-x-2-3-x---2-----0-----3--|
--2-x-2-x-2-3-x-0-2--2--0--0--3--|


              PM PM                  
  S S S S S S S  S  S S S S S S S S  
------------------------------------|
------------------------------------|
------------------------------------|
------------------------------------|
--2-x-2-x-2-3-x--x--x-0-2-x-2-3-x-0-|
--2-x-2-x-2-3-3--3--3-0-2-x-2-3-x-0-|


                     PM    PM     
  S S S S S S S S E  S  E  S  E   
---------------------------------|
---------------------------------|
---------------------------------|
---------------------------------|
--2-x-2-x-2-3-x---2-----0-----3--|
--2-x-2-x-2-3-x-0-2--2--0--0--3--|


              PM PM                  
  S S S S S S S  S  S S S S S S S S  
------------------------------------|
------------------------------------|
------------------------------------|
------------------------------------|
--2-x-2-x-2-3-x--x--x-0-2-x-2-3-x-0-|
--2-x-2-x-2-3-3--3--3-0-2-x-2-3-x-0-|


  S S S S S S S S E  S E  S E   
-------------------------------|
-------------------------------|
-------------------------------|
-------------------------------|
--2-x-2-x-2-3-x---2--L-0--L-3--|
--2-x-2-x-2-3-x-0-2--L-0--L-3--|


  W                   W                 
-------------------|-------------------|
-------------------|-------------------|
-------------------|-------------------|
-------------------|--5----------------|
--2----------------|--3----------------|
--2----------------|--3----------------|


  W                   W                 
-------------------|-------------------|
-------------------|-------------------|
-------------------|-------------------|
-------------------|--5----------------|
--2----------------|--3----------------|
--2----------------|--5----------------|


  W                   W                 
-------------------|-------------------|
-------------------|-------------------|
-------------------|-------------------|
-------------------|--5----------------|
--2----------------|--3----------------|
--2----------------|--5----------------|


  W                   H        E  S E  S E   
-------------------|------------------------|
-------------------|------------------------|
-------------------|------------------------|
-------------------|--5---------------------|
--2----------------|--3--------2----0----3--|
--2----------------|--5--------2--2-0--0-3--|


              PM PM                  
  S S S S S S S  S  S S S S S S S S  
------------------------------------|
------------------------------------|
------------------------------------|
------------------------------------|
--2-x-2-x-2-3-x--x--x-0-2-x-2-3-x-0-|
--2-x-2-x-2-3-3--3--3-0-2-x-2-3-x-0-|


                     PM    PM     
  S S S S S S S S E  S  E  S  E   
---------------------------------|
---------------------------------|
---------------------------------|
---------------------------------|
--2-x-2-x-2-3-x---2-----0-----3--|
--2-x-2-x-2-3-x-0-2--2--0--0--3--|


              PM PM                  
  S S S S S S S  S  S S S S S S S S  
------------------------------------|
------------------------------------|
------------------------------------|
------------------------------------|
--2-x-2-x-2-3-x--x--x-0-2-x-2-3-x-0-|
--2-x-2-x-2-3-3--3--3-0-2-x-2-3-x-0-|


                     PM    PM     
  S S S S S S S S E  S  E  S  E   
---------------------------------|
---------------------------------|
---------------------------------|
---------------------------------|
--2-x-2-x-2-3-x---2-----0-----3--|
--2-x-2-x-2-3-x-0-2--2--0--0--3--|


              PM PM                  
  S S S S S S S  S  S S S S S S S S  
------------------------------------|
------------------------------------|
------------------------------------|
------------------------------------|
--2-x-2-x-2-3-x--x--x-0-2-x-2-3-x-0-|
--2-x-2-x-2-3-3--3--3-0-2-x-2-3-x-0-|


                     PM    PM     
  S S S S S S S S E  S  E  S  E   
---------------------------------|
---------------------------------|
---------------------------------|
---------------------------------|
--2-x-2-x-2-3-x---2-----0-----3--|
--2-x-2-x-2-3-x-0-2--2--0--0--3--|


              PM PM                  
  S S S S S S S  S  S S S S S S S S  
------------------------------------|
------------------------------------|
------------------------------------|
------------------------------------|
--2-x-2-x-2-3-x--x--x-0-2-x-2-3-x-0-|
--2-x-2-x-2-3-3--3--3-0-2-x-2-3-x-0-|


                     PM    PM     
  S S S S S S S S E  S  E  S  E   
---------------------------------|
---------------------------------|
---------------------------------|
---------------------------------|
--2-x-2-x-2-3-x---2-----0-----3--|
--2-x-2-x-2-3-x-0-2--2--0--0--3--|


  W                   W                 
-------------------|-------------------|
-------------------|-------------------|
-------------------|-------------------|
-------------------|--5----------------|
--2----------------|--3----------------|
--2----------------|--3----------------|


  W                   W                 
-------------------|-------------------|
-------------------|-------------------|
-------------------|-------------------|
-------------------|--5----------------|
--2----------------|--3----------------|
--2----------------|--5----------------|


  W                   W                 
-------------------|-------------------|
-------------------|-------------------|
-------------------|-------------------|
-------------------|--5----------------|
--2----------------|--3----------------|
--2----------------|--5----------------|


  W                   W                 
-------------------|-------------------|
-------------------|-------------------|
-------------------|-------------------|
-------------------|--5----------------|
--2----------------|--3----------------|
--2----------------|--3----------------|


  W                   W                 
-------------------|-------------------|
-------------------|-------------------|
-------------------|-------------------|
-------------------|--5----------------|
--2----------------|--3----------------|
--2----------------|--3----------------|


  W                   W                 
-------------------|-------------------|
-------------------|-------------------|
-------------------|-------------------|
-------------------|--5----------------|
--2----------------|--3----------------|
--2----------------|--5----------------|


  W                   W                 
-------------------|-------------------|
-------------------|-------------------|
-------------------|-------------------|
-------------------|--5----------------|
--2----------------|--3----------------|
--2----------------|--5----------------|


  W                   H        E  S E  S E   
-------------------|------------------------|
-------------------|------------------------|
-------------------|------------------------|
-------------------|--5---------------------|
--2----------------|--3--------2----0----3--|
--2----------------|--5--------2--2-0--0-3--|


              PM PM                  
  S S S S S S S  S  S S S S S S S S  
------------------------------------|
------------------------------------|
------------------------------------|
------------------------------------|
--2-x-2-x-2-3-x--x--x-0-2-x-2-3-x-0-|
--2-x-2-x-2-3-3--3--3-0-2-x-2-3-x-0-|


                     PM    PM     
  S S S S S S S S E  S  E  S  E   
---------------------------------|
---------------------------------|
---------------------------------|
---------------------------------|
--2-x-2-x-2-3-x---2-----0-----3--|
--2-x-2-x-2-3-x-0-2--2--0--0--3--|


              PM PM                  
  S S S S S S S  S  S S S S S S S S  
------------------------------------|
------------------------------------|
------------------------------------|
------------------------------------|
--2-x-2-x-2-3-x--x--x-0-2-x-2-3-x-0-|
--2-x-2-x-2-3-3--3--3-0-2-x-2-3-x-0-|


                     PM    PM     
  S S S S S S S S E  S  E  S  E   
---------------------------------|
---------------------------------|
---------------------------------|
---------------------------------|
--2-x-2-x-2-3-x---2-----0-----3--|
--2-x-2-x-2-3-x-0-2--2--0--0--3--|


              PM PM                  
  S S S S S S S  S  S S S S S S S S  
------------------------------------|
------------------------------------|
------------------------------------|
------------------------------------|
--2-x-2-x-2-3-x--x--x-0-2-x-2-3-x-0-|
--2-x-2-x-2-3-3--3--3-0-2-x-2-3-x-0-|


                     PM    PM     
  S S S S S S S S E  S  E  S  E   
---------------------------------|
---------------------------------|
---------------------------------|
---------------------------------|
--2-x-2-x-2-3-x---2-----0-----3--|
--2-x-2-x-2-3-x-0-2--2--0--0--3--|


              PM PM   <              
  S S S S S S S  S  S S S S S S S S  
------------------------------------|
------------------------------------|
------------------------------------|
------------------------------------|
----------2-3-x--x--x-0-2-x-2-3-x-0-|
----------2-3-3--3--3-0-2-x-2-3-x-0-|


                     PM    PM     
  S S S S S S S S E  S  E  S  E   
---------------------------------|
---------------------------------|
---------------------------------|
---------------------------------|
--2-x-2-x-2-3-x---2-----0-----3--|
--2-x-2-x-2-3-x-0-2--2--0--0--3--|


  E  E  E  E  E  E  E  E                
--------------------------|-----|-----||
--------------------------|-----|-----||
--------------------------|-----|-----||
--------------------------|-----|-----||
--2-----------------------|-----|-----||
--2-----------------------|-----|-----||




Duration Legend
---------------
W - whole
H - half
Q - quarter
E - 8th
S - 16th
T - 32nd
X - 64th
. - note dotted
|-n-|  - n-tuplets


Tablature Legend
----------------
L - tied note
x - dead note
g - grace note
(n) - ghost note
> - accentuded note
NH - natural harmonic
AH - artificial harmonic
TH - tapped harmonic
SH - semi harmonic
PH - pitch harmonic
h - hammer on
p - pull off
b - bend
br - bendRelease
pb - preBend
pbr - preBendRelease
brb - bendReleaseBend
\n/ - tremolo bar dip
\n - tremolo bar dive
-/n - tremolo bar Release up
/n\ - tremolo bar inverted dip
/n - tremolo bar return
-\n - tremolo bar Release down
S - shift slide
s - legato slide
/ -  slide into from below or out of upwards
\ -  slide into from above or out of downwards
~ - vibrato
W - wide vibrato
tr - trill
TP - tremolo picking
T - tapping
S - slap
P - pop
< - fade in
^ - brush up
v - brush down
Добавлено: 20.05.2012
Другие материалы по этой песне:
  • Аккорды и текст

Страница создана 20.05.2012
http://primanota.ru/linkin-park/point-of-autority-chords.htm
Привет, Гость.
Предлагаем пройти революционный курс по гитаре.
Подарок от PrimaNota.Ru, забирай!