PrimaNota.ru - самый крупный в мире бесплатный архив песенных текстов, аккордов, табулатур и нот


Linkin Park - P5hng Me A Wy - текст песни, таба, видео

Регистрация Запомнить меня
Войти через:  Facebook Google Twitter Vk Yandex Mail.ru

Linkin Park - P5hng Me A Wy - текст песни, таба, видео

Печатать
Просмотров: 258
Уроки эстрадного вокала в Санкт-Петербурге
Guitar 1 - Db Ab Db Gb Bb Eb (Slightly distorted w/delay and reverb)
Guitar 2 - Db Ab Db Gb Bb Eb (Semi-distorted and palm-muted)
Guitar 3 - Db Ab Db Gb Bb Eb (Semi-distorted and palm-muted)
Guitar 4 - Db Ab Db Gb Bb Eb (Distorted)
Guitar 5 - Db Ab Db Gb Bb Eb (Distorted)
Guitar 6 - Db Ab Db Gb Bb Eb (Distorted)
Guitar 7 - Db Ab Db Gb Bb Eb (Distorted)


Intro - Guitar 1
|-7-----7-----7---5-----5-----5---7-----7-----7---5-----5-----5---|
|---5-5---5-5---5---5-5---5-5---5---5-5---5-5---5---5-5---5-5---5-|
|-----------------------------------------------------------------|
|-----------------------------------------------------------------|
|-----------------------------------------------------------------|
|-----------------------------------------------------------------|

|-7-----7-----7---5-----5-----5---7-----7-----7---5-----5-----5---|
|---5-5---5-5---5---5-5---5-5---5---5-5---5-5---5---5-5---5-5---5-|
|-----------------------------------------------------------------|
|-----------------------------------------------------------------|
|-----------------------------------------------------------------|
|-----------------------------------------------------------------|

Heavy Intro
|-----------------------------------------------------------------|
|-----------------------------------------------------------------|
|-----------------------------------------------------------------|
|-----------------------------------------------------------------|
|-----------------------------------------------------------------|
|-2---2---2-2-2-2-2---2-2-2-2-2---2---2---2-2-2-2-2---2-2-2-2-2---|
|Guitars 2 and 3
|
|-----------------------------------------------------------------|
|-----------------------------------------------------------------|
|-----------------------------------------------------------------|
|-2---------------------------------------------------------------|
|-2---------------------------------------------------------------|
|-2---------------------------------------------------------------|
|Guitars 4 and 5

(Guitars 2 and 3)
|-----------------------------------------------------------------|
|-----------------------------------------------------------------|
|-----------------------------------------------------------------|
|-----------------------------------------------------------------|
|-----------------------------------------------------------------|
|-2---2---2-2-2-2-2---2-2-2-2-2---2---2---2-2-2-2-2---2-2-2-2-2---|

|-----------------------------------------------------------------|
|-----------------------------------------------------------------|
|-----------------------------------------------------------------|
|-----------------------------------------------------------------|
|-----------------------------------------------------------------|
|-2---2---2-2-2-2-2---2-2-2-2-2---2---2---2-2-2-2-2---2-2-2-2-2---|
|Guitars 2 and 3
|
|-----------------------------------------------------------------|
|-----------------------------------------------------------------|
|-----------------------------------------------------------------|
|-2---------------------------------------------------------------|
|-2---------------------------------------------------------------|
|-2---------------------------------------------------------------|
|Guitars 4 and 5

(Guitars 2 and 3)
|-----------------------------------------------------------------|
|-----------------------------------------------------------------|
|-----------------------------------------------------------------|
|-----------------------------------------------------------------|
|-----------------------------------------------------------------|
|-2---2---2-2-2-2-2---2-2-2-2-2---2---2---2-2-2-2-2---2-2-2-2-2---|

First Verse
|-----------------------------------------------------------------|
|-----------------------------------------------------------------|
|-----------------------------------------------------------------|
|-----------------------------------------------------------------|
|-----------------------------------------------------------------|
|-2---2---2-2-2-2-2---2-2-2-2-2---2---2---2-2-2-2-2---2-2-2-2-2---|
|Guitars 2 and 3
|
|-----------------------------------------------------------------|
|-----------------------------------------------------------------|
|-----------------------------------------------------------------|
|-2---------------------------------------------------------------|
|-2---------------------------------------------------------------|
|-2---------------------------------------------------------------|
|Guitars 4 and 5

(Guitars 2 and 3)
|-----------------------------------------------------------------|
|-----------------------------------------------------------------|
|-----------------------------------------------------------------|
|-----------------------------------------------------------------|
|-----------------------------------------------------------------|
|-2---2---2-2-2-2-2---2-2-2-2-2---2---2---2-2-2-2-2---2-2-2-2-2---|

|-----------------------------------------------------------------|
|-----------------------------------------------------------------|
|-----------------------------------------------------------------|
|-----------------------------------------------------------------|
|-----------------------------------------------------------------|
|-2---2---2-2-2-2-2---2-2-2-2-2---2---2---2-2-2-2-2---2-2-2-2-2---|
|Guitars 2 and 3
|
|-----------------------------------------------------------------|
|-----------------------------------------------------------------|
|-----------------------------------------------------------------|
|-2---------------------------------------------------------------|
|-2---------------------------------------------------------------|
|-2---------------------------------------------------------------|
|Guitars 4 and 5

(Guitars 2 and 3)
|-----------------------------------------------------------------|
|-----------------------------------------------------------------|
|-----------------------------------------------------------------|
|-----------------------------------------------------------------|
|-----------------------------------------------------------------|
|-2---2---2-2-2-2-2---2-2-2-2-2---2---2---2-2-2-2-2---2-2-2-2-2---|

|-----------------------------------------------------------------|
|-----------------------------------------------------------------|
|-----------------------------------------------------------------|
|-----------------------------------------------------------------|
|-----------------------------------------------------------------|
|-2---2---2-2-2-2-2---2-2-2-2-2---2---2---2-2-2-2-2---2-2-2-2-2---|
|Guitars 2 and 3
|
|-----------------------------------------------------------------|
|-----------------------------------------------------------------|
|-----------------------------------------------------------------|
|-2---------------------------------------------------------------|
|-2---------------------------------------------------------------|
|-2---------------------------------------------------------------|
|Guitars 4 and 5

(Guitars 2 and 3)
|-----------------------------------------------------------------|
|-----------------------------------------------------------------|
|-----------------------------------------------------------------|
|-----------------------------------------------------------------|
|-----------------------------------------------------------------|
|-2---2---2-2-2-2-2---2-2-2-2-2---2---2---2-2-2-2-2---2-2-2-2-2---|

|-----------------------------------------------------------------|
|-----------------------------------------------------------------|
|-----------------------------------------------------------------|
|-----------------------------------------------------------------|
|-----------------------------------------------------------------|
|-2---2---2-2-2-2-2---2-2-2-2-2---2---2---2-2-2-2-2---2-2-2-2-2---|
|Guitars 2 and 3
|
|-----------------------------------------------------------------|
|-----------------------------------------------------------------|
|-----------------------------------------------------------------|
|-2---------------------------------------------------------------|
|-2---------------------------------------------------------------|
|-2---------------------------------------------------------------|
|Guitars 4 and 5

(Guitars 2 and 3)
|-----------------------------------------------------------------|
|-----------------------------------------------------------------|
|-----------------------------------------------------------------|
|-----------------------------------------------------------------|
|-----------------------------------------------------------------|
|-2---2---2-2-2-2-2---2-2-2-2-2---2---2---2-2-2-2-2---2-2-2-2-2---|

Chorus - Guitars 2 and 3
|-----------------------------------------------------------------|
|-----------------------------------------------------------------|
|-----------------------------------------------------------------|
|-----------------------------------------------------------------|
|-----------------------------------------------------------------|
|-2---2---2-2-2-2-2---2-2-2-2-2---2---2---2-2-2-2-2---2-2-2-2-2---|

|-----------------------------------------------------------------|
|-----------------------------------------------------------------|
|-----------------------------------------------------------------|
|-----------------------------------------------------------------|
|-----------------------------------------------------------------|
|-2---2---2-2-2-2-2---2-2-2-2-2---2---2---2-2-2-2-2---2-2-2-2-2---|

|-----------------------------------------------------------------|
|-----------------------------------------------------------------|
|-----------------------------------------------------------------|
|-----------------------------------------------------------------|
|-----------------------------------------------------------------|
|-2---2---2-2-2-2-2---2-2-2-2-2---2---2---2-2-2-2-2---2-2-2-2-2---|

|-----------------------------------------------------------------|
|-----------------------------------------------------------------|
|-----------------------------------------------------------------|
|-----------------------------------------------------------------|
|-----------------------------------------------------------------|
|-2---2---2-2-2-2-2---2-2-2-2-2---2---2---2-2-2-2-2---2-2-2-2-2---|

(No guitar in post-chorus)

2nd Verse
|-----------------------------------------------------------------|
|-----------------------------------------------------------------|
|-----------------------------------------------------------------|
|-----------------------------------------------------------------|
|-----------------------------------------------------------------|
|-2---2---2-2-2-2-2---2-2-2-2-2---2---2---2-2-2-2-2---2-2-2-2-2---|
|Guitars 2 and 3
|
|-----------------------------------------------------------------|
|-----------------------------------------------------------------|
|-----------------------------------------------------------------|
|-2---------------------------------------------------------------|
|-2---------------------------------------------------------------|
|-2---------------------------------------------------------------|
|Guitars 4 and 5

|-----------------------------------------------------------------|
|-----------------------------------------------------------------|
|-----------------------------------------------------------------|
|-----------------------------------------------------------------|
|-----------------------------------------------------------------|
|-2---2---2-2-2-2-2---2-2-2-2-2---2---2---2-2-2-2-2---2-2-2-2-2---|
|Guitars 2 and 3
|
|-----------------------------------------------------------------|
|-----------------------------------------------------------------|
|-----------------------------------------------------------------|
|---------------------------------------------------------x-x-2---|
|---------------------------------------------------------x-x-2---|
|---------------------------------------------------------x-x-2---|
|Guitars 4 and 5

|-----------------------------------------------------------------|
|-----------------------------------------------------------------|
|-----------------------------------------------------------------|
|-----------------------------------------------------------------|
|-----------------------------------------------------------------|
|-2---2---2-2-2-2-2---2-2-2-2-2---2---2---2-2-2-2-2---2-2-2-2-2---|
|Guitars 2 and 3
|
|-----------------------------------------------------------------|
|-----------------------------------------------------------------|
|-----------------------------------------------------------------|
|-2---------------------------------------------------------------|
|-2---------------------------------------------------------------|
|-2---------------------------------------------------------------|
|Guitars 4 and 5

(Guitars 2 and 3)
|-----------------------------------------------------------------|
|-----------------------------------------------------------------|
|-----------------------------------------------------------------|
|-----------------------------------------------------------------|
|-----------------------------------------------------------------|
|-2---2---2-2-2-2-2---2-2-2-2-2---2---2---2-2-2-2-2---2-2---------|

Pre-Chorus - Guitar 1
|-7-----7-----7---5-----5-----5---7-----7-----7---5-----5-----5---|
|---5-5---5-5---5---5-5---5-5---5---5-5---5-5---5---5-5---5-5---5-|
|-----------------------------------------------------------------|
|-----------------------------------------------------------------|
|-----------------------------------------------------------------|
|-----------------------------------------------------------------|

|-7-----7-----7---5-----5-----5---7-----7-----7---5-----5-----5---|
|---5-5---5-5---5---5-5---5-5---5---5-5---5-5---5---5-5---5-5---5-|
|-----------------------------------------------------------------|
|-----------------------------------------------------------------|
|-----------------------------------------------------------------|
|-----------------------------------------------------------------|

Chorus
|-7---7---7---7---5---5---5---5---7---7---7---7---5---5---5---5---|
|---5---5---5---5---5---5---5---5---5---5---5---5---5---5---5---5-|
|-----------------------------------------------------------------|
|-----------------------------------------------------------------|
|-----------------------------------------------------------------|
|-----------------------------------------------------------------|
|Guitar 1
|
|-----------------------------------------------------------------|
|-----------------------------------------------------------------|
|-----------------------------------------------------------------|
|-2~--------------10~-------------5~--------------7~----9~----0~--|
|-2~--------------10~-------------5~--------------7~----9~----0~--|
|-2~--------------10~-------------5~--------------7~----9~----0~--|
|Guitars 4 and 5

|-7---7---7---7---5---5---5---5---7---7---7---7---5---5---5---5---|
|---5---5---5---5---5---5---5---5---5---5---5---5---5---5---5---5-|
|-----------------------------------------------------------------|
|-----------------------------------------------------------------|
|-----------------------------------------------------------------|
|-----------------------------------------------------------------|
|Guitar 1
|
|-----------------------------------------------------------------|
|-----------------------------------------------------------------|
|-----------------------------------------------------------------|
|-2~--------------10~-------------5~--------------7~----9~----0~--|
|-2~--------------10~-------------5~--------------7~----9~----0~--|
|-2~--------------10~-------------5~--------------7~----9~----0~--|
|Guitars 4 and 5

Bridge
|-7-----------7-----------7-------5-----------5-----------5-------|
|-----5---5-------5---5-------5-------5---5-------5---5-------5---|
|-----------------------------------------------------------------|
|-----------------------------------------------------------------|
|-----------------------------------------------------------------|
|-----------------------------------------------------------------|
|Guitar 1
|
|-----------------------------------------------------------------|
|-----------------------------------------------------------------|
|-----------------------------------------------------------------|
|-----------------------------------------------------------------|
|-----------------------------------------------------------------|
|-2---2---2-2-2-2-2---2-2-2-2-2---2---2---2-2-2-2-2---2-2-2-2-2---|
|Guitar 2

|-7-----------7-----------7-------5-----------5-----------5-------|
|-----5---5-------5---5-------5-------5---5-------5---5-------5---|
|-----------------------------------------------------------------|
|-----------------------------------------------------------------|
|-----------------------------------------------------------------|
|-----------------------------------------------------------------|
|Guitar 1
|
|-----------------------------------------------------------------|
|-----------------------------------------------------------------|
|-----------------------------------------------------------------|
|-----------------------------------------------------------------|
|-----------------------------------------------------------------|
|-2---2---2-2-2-2-2---2-2-2-2-2---2---2---2-2-2-2-2---2-2-2-2-2---|
|Guitar 2

|-7-----------7-----------7-------5-----------5-----------5-------|
|-----5---5-------5---5-------5-------5---5-------5---5-------5---|
|-----------------------------------------------------------------|
|-----------------------------------------------------------------|
|-----------------------------------------------------------------|
|-----------------------------------------------------------------|
|Guitar 1
|
|-----------------------------------------------------------------|
|-----------------------------------------------------------------|
|-----------------------------------------------------------------|
|-----------------------------------------------------------------|
|-----------------------------------------------------------------|
|-2---2---2-2-2-2-2---2-2-2-2-2---2---2---2-2-2-2-2---2-2-2-2-2---|
|Guitar 2

|-7-----------7-----------7-------5-----------5-----------5-------|
|-----5---5-------5---5-------5-------5---5-------5---5-------5---|
|-----------------------------------------------------------------|
|-----------------------------------------------------------------|
|-----------------------------------------------------------------|
|-----------------------------------------------------------------|
|Guitar 1
|
|-----------------------------------------------------------------|
|-----------------------------------------------------------------|
|-----------------------------------------------------------------|
|-----------------------------------------------------------------|
|-----------------------------------------------------------------|
|-2---2---2-2-2-2-2---2-2-2-2-2---2---2---2-2-2-2-2---2-2-2-2-2---|
|Guitar 2

|-7-----------7-----------7-------5-----------5-----------5-------|
|-----5---5-------5---5-------5-------5---5-------5---5-------5---|
|-----------------------------------------------------------------|
|-----------------------------------------------------------------|
|-----------------------------------------------------------------|
|-----------------------------------------------------------------|
|Guitar 1
|
|-----------------------------------------------------------------|
|-----------------------------------------------------------------|
|-----------------------------------------------------------------|
|-----------------------------------------------------------------|
|-----------------------------------------------------------------|
|-2---2---2-2-2-2-2---2-2-2-2-2---2---2---2-2-2-2-2---2-2-2-2-2---|
|Guitar 2

|-7-----------7-----------7-------5-----------5-----------5-------|
|-----5---5-------5---5-------5-------5---5-------5---5-------5---|
|-----------------------------------------------------------------|
|-----------------------------------------------------------------|
|-----------------------------------------------------------------|
|-----------------------------------------------------------------|
|Guitar 1
|
|-----------------------------------------------------------------|
|-----------------------------------------------------------------|
|-----------------------------------------------------------------|
|-----------------------------------------------------------------|
|-----------------------------------------------------------------|
|-2---2---2-2-2-2-2---2-2-2-2-2---2---2---2-2-2-2-2---2-2-2-2-2---|
|Guitar 2

|-7-----------7-----------7-------5-----------5-----------5-------|
|-----5---5-------5---5-------5-------5---5-------5---5-------5---|
|-----------------------------------------------------------------|
|-----------------------------------------------------------------|
|-----------------------------------------------------------------|
|-----------------------------------------------------------------|
|Guitar 1
|
|-----------------------------------------------------------------|
|-----------------------------------------------------------------|
|-----------------------------------------------------------------|
|-----------------------------------------------------------------|
|-----------------------------------------------------------------|
|-2---2---2-2-2-2-2---2-2-2-2-2---2---2---2-2-2-2-2---2-2-2-2-2---|
|Guitar 2

|-7-----------7-----------7-------5-----------5-----------5-------|
|-----5---5-------5---5-------5-------5---5-------5---5-------5---|
|-----------------------------------------------------------------|
|-----------------------------------------------------------------|
|-----------------------------------------------------------------|
|-----------------------------------------------------------------|
|Guitar 1
|
|-----------------------------------------------------------------|
|-----------------------------------------------------------------|
|-----------------------------------------------------------------|
|-----------------------------------------------------------------|
|-----------------------------------------------------------------|
|-2---2---2-2-2-2-2---2-2-2-2-2---2---2---2-2-2-2-2---2-2---------|
|Guitar 2

Pre-Chorus
|-------------------------------------------------------------------------------------------------|
|-------------------------------------------------------------------------------------------------|
|-------------------------------------------------------------------------------------------------|
|-10-10-10-10-10-10-10-10-10-10-10-10-10-10-10-10-12-12-12-12-12-12-12-12-12-12-12-12-12-12-12-12-|
|-10-10-10-10-10-10-10-10-10-10-10-10-10-10-10-10-12-12-12-12-12-12-12-12-12-12-12-12-12-12-12-12-|
|-10-10-10-10-10-10-10-10-10-10-10-10-10-10-10-10-12-12-12-12-12-12-12-12-12-12-12-12-12-12-12-12-|
|Guitar 4
|
|-------------------------------------------------------------------------------------------------|
|-------------------------------------------------------------------------------------------------|
|-9--9--9--9--9--9--9--9--9--9--9--9--9--9--9--9--9--9--9--9--9--9--9--9--9--9--9--9--9--9--9--9--|
|-x--x--x--x--x--x--x--x--x--x--x--x--x--x--x--x--x--x--x--x--x--x--x--x--x--x--x--x--x--x--x--x--|
|-7--7--7--7--7--7--7--7--7--7--7--7--7--7--7--7--7--7--7--7--7--7--7--7--7--7--7--7--7--7--7--7--|
|-------------------------------------------------------------------------------------------------|
|Guitars 6 and 7

|-----------------------------------------------------------------|
|-----------------------------------------------------------------|
|-----------------------------------------------------------------|
|-7-7-7-7-7-7-7-7-7-7-7-7-7-7-7-7-4-4-4-4-4-4-5-5-5-5-5-5-9-9-9-9-|
|-7-7-7-7-7-7-7-7-7-7-7-7-7-7-7-7-4-4-4-4-4-4-5-5-5-5-5-5-9-9-9-9-|
|-7-7-7-7-7-7-7-7-7-7-7-7-7-7-7-7-4-4-4-4-4-4-5-5-5-5-5-5-9-9-9-9-|
|Guitar 4
|
|-----------------------------------------------------------------|
|-----------------------------------------------------------------|
|-9-9-9-9-9-9-9-9-9-9-9-9-9-9-9-9-9-9-9-9-9-9-9-9-9-9-9-9-9-9-9-9-|
|-x-x-x-x-x-x-x-x-x-x-x-x-x-x-x-x-x-x-x-x-x-x-x-x-x-x-x-x-x-x-x-x-|
|-7-7-7-7-7-7-7-7-7-7-7-7-7-7-7-7-7-7-7-7-7-7-7-7-7-7-7-7-7-7-7-7-|
|-----------------------------------------------------------------|
|Guitars 6 and 7

|-------------------------------------------------------------------------------------------------|
|-------------------------------------------------------------------------------------------------|
|-------------------------------------------------------------------------------------------------|
|-10-10-10-10-10-10-10-10-10-10-10-10-10-10-10-10-12-12-12-12-12-12-12-12-12-12-12-12-12-12-12-12-|
|-10-10-10-10-10-10-10-10-10-10-10-10-10-10-10-10-12-12-12-12-12-12-12-12-12-12-12-12-12-12-12-12-|
|-10-10-10-10-10-10-10-10-10-10-10-10-10-10-10-10-12-12-12-12-12-12-12-12-12-12-12-12-12-12-12-12-|
|Guitar 4
|
|-------------------------------------------------------------------------------------------------|
|-------------------------------------------------------------------------------------------------|
|-9--9--9--9--9--9--9--9--9--9--9--9--9--9--9--9--9--9--9--9--9--9--9--9--9--9--9--9--9--9--9--9--|
|-x--x--x--x--x--x--x--x--x--x--x--x--x--x--x--x--x--x--x--x--x--x--x--x--x--x--x--x--x--x--x--x--|
|-7--7--7--7--7--7--7--7--7--7--7--7--7--7--7--7--7--7--7--7--7--7--7--7--7--7--7--7--7--7--7--7--|
|-------------------------------------------------------------------------------------------------|
|Guitars 6 and 7

|---------------------------------------------------------------------------|
|---------------------------------------------------------------------------|
|---------------------------------------------------------------------------|
|-7-7-7-7-7-7-7-7-7-7-7-7-7-7-7-7-4-4-4-4-4-4-5--5--5--5--5--5--4--4--4--4--|
|-7-7-7-7-7-7-7-7-7-7-7-7-7-7-7-7-4-4-4-4-4-4-5--5--5--5--5--5--4--4--4--4--|
|-7-7-7-7-7-7-7-7-7-7-7-7-7-7-7-7-4-4-4-4-4-4-5--5--5--5--5--5--4--4--4--4--|
|Guitar 4
|
|---------------------------------------------------------------------------|
|---------------------------------------------------------------------------|
|-9-9-9-9-9-9-9-9-9-9-9-9-9-9-9-9-9-9-9-9-9-9-11-11-11-11-11-11-11-11-11-11-|
|-x-x-x-x-x-x-x-x-x-x-x-x-x-x-x-x-x-x-x-x-x-x-x--x--x--x--x--x--x--x--x--x--|
|-7-7-7-7-7-7-7-7-7-7-7-7-7-7-7-7-7-7-7-7-7-7-9--9--9--9--9--9--9--9--9--9--|
|---------------------------------------------------------------------------|
|Guitars 6 and 7

Final Chorus
|-------------------------------------------------------------------------------------------------|
|-------------------------------------------------------------------------------------------------|
|-------------------------------------------------------------------------------------------------|
|-2~----------------------------------------------10~---------------------------------------------|
|-2~----------------------------------------------10~---------------------------------------------|
|-2~----------------------------------------------10~---------------------------------------------|
|Guitars 4 and 5
|
|-------------------------------------------------------------------------------------------------|
|-------------------------------------------------------------------------------------------------|
|-13-13-13-13-13-13-13-13-13-13-13-13-13-13-13-13-14-14-14-14-14-14-14-14-14-14-14-14-14-14-14-14-|
|-x--x--x--x--x--x--x--x--x--x--x--x--x--x--x--x--x--x--x--x--x--x--x--x--x--x--x--x--x--x--x--x--|
|-11-11-11-11-11-11-11-11-11-11-11-11-11-11-11-11-12-12-12-12-12-12-12-12-12-12-12-12-12-12-12-12-|
|-------------------------------------------------------------------------------------------------|
|Guitars 6 and 7

|-------------------------------------------------------------------------------------------------|
|-------------------------------------------------------------------------------------------------|
|-------------------------------------------------------------------------------------------------|
|-5~----------------------------------------------7~----------------9~----------------0~----------|
|-5~----------------------------------------------7~----------------9~----------------0~----------|
|-5~----------------------------------------------7~----------------9~----------------0~----------|
|Guitars 4 and 5
|
|-------------------------------------------------------------------------------------------------|
|-------------------------------------------------------------------------------------------------|
|-16-16-16-16-16-16-16-16-16-16-16-16-16-16-16-16-17-17-17-17-17-17-16-16-16-16-16-16-14-14-14-14-|
|-x--x--x--x--x--x--x--x--x--x--x--x--x--x--x--x--x--x--x--x--x--x--x--x--x--x--x--x--x--x--x--x--|
|-14-14-14-14-14-14-14-14-14-14-14-14-14-14-14-14-15-15-15-15-15-15-14-14-14-14-14-14-12-12-12-12-|
|-------------------------------------------------------------------------------------------------|
|Guitars 6 and 7

|-------------------------------------------------------------------------------------------------|
|-------------------------------------------------------------------------------------------------|
|-------------------------------------------------------------------------------------------------|
|-2~----------------------------------------------10~---------------------------------------------|
|-2~----------------------------------------------10~---------------------------------------------|
|-2~----------------------------------------------10~---------------------------------------------|
|Guitars 4 and 5
|
|-------------------------------------------------------------------------------------------------|
|-------------------------------------------------------------------------------------------------|
|-13-13-13-13-13-13-13-13-13-13-13-13-13-13-13-13-14-14-14-14-14-14-14-14-14-14-14-14-14-14-14-14-|
|-x--x--x--x--x--x--x--x--x--x--x--x--x--x--x--x--x--x--x--x--x--x--x--x--x--x--x--x--x--x--x--x--|
|-11-11-11-11-11-11-11-11-11-11-11-11-11-11-11-11-12-12-12-12-12-12-12-12-12-12-12-12-12-12-12-12-|
|-------------------------------------------------------------------------------------------------|
|Guitars 6 and 7

|-------------------------------------------------------------------------------------------------|
|-------------------------------------------------------------------------------------------------|
|-------------------------------------------------------------------------------------------------|
|-5~----------------------------------------------7~----------------9~----------------0~----------|
|-5~----------------------------------------------7~----------------9~----------------0~----------|
|-5~----------------------------------------------7~----------------9~----------------0~----------|
|Guitars 4 and 5
|
|-------------------------------------------------------------------------------------------------|
|-------------------------------------------------------------------------------------------------|
|-16-16-16-16-16-16-16-16-16-16-16-16-16-16-16-16-17-17-17-17-17-17-16-16-16-16-16-16-14-14-14-14-|
|-x--x--x--x--x--x--x--x--x--x--x--x--x--x--x--x--x--x--x--x--x--x--x--x--x--x--x--x--x--x--x--x--|
|-14-14-14-14-14-14-14-14-14-14-14-14-14-14-14-14-15-15-15-15-15-15-14-14-14-14-14-14-12-12-12-12-|
|-------------------------------------------------------------------------------------------------|
|Guitars 6 and 7

|-------------------------------------------------------------------------------------------------|
|-------------------------------------------------------------------------------------------------|
|-------------------------------------------------------------------------------------------------|
|-2~----------------------------------------------10~---------------------------------------------|
|-2~----------------------------------------------10~---------------------------------------------|
|-2~----------------------------------------------10~---------------------------------------------|
|Guitars 4 and 5
|
|-------------------------------------------------------------------------------------------------|
|-------------------------------------------------------------------------------------------------|
|-13-13-13-13-13-13-13-13-13-13-13-13-13-13-13-13-14-14-14-14-14-14-14-14-14-14-14-14-14-14-14-14-|
|-x--x--x--x--x--x--x--x--x--x--x--x--x--x--x--x--x--x--x--x--x--x--x--x--x--x--x--x--x--x--x--x--|
|-11-11-11-11-11-11-11-11-11-11-11-11-11-11-11-11-12-12-12-12-12-12-12-12-12-12-12-12-12-12-12-12-|
|-------------------------------------------------------------------------------------------------|
|Guitars 6 and 7

|-------------------------------------------------------------------------------------------------|
|-------------------------------------------------------------------------------------------------|
|-------------------------------------------------------------------------------------------------|
|-5~----------------------------------------------7~----------------9~----------------0~----------|
|-5~----------------------------------------------7~----------------9~----------------0~----------|
|-5~----------------------------------------------7~----------------9~----------------0~----------|
|Guitars 4 and 5
|
|-------------------------------------------------------------------------------------------------|
|-------------------------------------------------------------------------------------------------|
|-16-16-16-16-16-16-16-16-16-16-16-16-16-16-16-16-17-17-17-17-17-17-16-16-16-16-16-16-14-14-14-14-|
|-x--x--x--x--x--x--x--x--x--x--x--x--x--x--x--x--x--x--x--x--x--x--x--x--x--x--x--x--x--x--x--x--|
|-14-14-14-14-14-14-14-14-14-14-14-14-14-14-14-14-15-15-15-15-15-15-14-14-14-14-14-14-12-12-12-12-|
|-------------------------------------------------------------------------------------------------|
|Guitars 6 and 7

|-------------------------------------------------------------------------------------------------|
|-------------------------------------------------------------------------------------------------|
|-------------------------------------------------------------------------------------------------|
|-2~----------------------------------------------10~---------------------------------------------|
|-2~----------------------------------------------10~---------------------------------------------|
|-2~----------------------------------------------10~---------------------------------------------|
|Guitars 4 and 5
|
|-------------------------------------------------------------------------------------------------|
|-------------------------------------------------------------------------------------------------|
|-13-13-13-13-13-13-13-13-13-13-13-13-13-13-13-13-14-14-14-14-14-14-14-14-14-14-14-14-14-14-14-14-|
|-x--x--x--x--x--x--x--x--x--x--x--x--x--x--x--x--x--x--x--x--x--x--x--x--x--x--x--x--x--x--x--x--|
|-11-11-11-11-11-11-11-11-11-11-11-11-11-11-11-11-12-12-12-12-12-12-12-12-12-12-12-12-12-12-12-12-|
|-------------------------------------------------------------------------------------------------|
|Guitars 6 and 7

|-------------------------------------------------------------------------------------------------|
|-------------------------------------------------------------------------------------------------|
|-------------------------------------------------------------------------------------------------|
|-5~----------------------------------------------7~----------------9~----------------0~----------|
|-5~----------------------------------------------7~----------------9~----------------0~----------|
|-5~----------------------------------------------7~----------------9~----------------0~----------|
|Guitars 4 and 5
|
|-------------------------------------------------------------------------------------------------|
|-------------------------------------------------------------------------------------------------|
|-16-16-16-16-16-16-16-16-16-16-16-16-16-16-16-16-17-17-17-17-17-17-16-16-16-16-16-16-14-14-14-14-|
|-x--x--x--x--x--x--x--x--x--x--x--x--x--x--x--x--x--x--x--x--x--x--x--x--x--x--x--x--x--x--x--x--|
|-14-14-14-14-14-14-14-14-14-14-14-14-14-14-14-14-15-15-15-15-15-15-14-14-14-14-14-14-12-12-12-12-|
|-------------------------------------------------------------------------------------------------|
|Guitars 6 and 7
Добавлено: 27.05.2012
Другие материалы по этой песне:

Страница создана 28.03.2012
http://primanota.ru/linkin-park/p5hng-me-a-wy-chords.htm
Привет, Гость.
Предлагаем пройти революционный курс по гитаре.
Подарок от PrimaNota.Ru, забирай!