PrimaNota.ru - самый крупный в мире бесплатный архив песенных текстов, аккордов, табулатур и нот


Linkin Park - Lolcity - таба, видео

Регистрация Запомнить меня
Войти через:  Facebook Google Twitter Vk Yandex Mail.ru

Linkin Park - Lolcity - таба, видео

Печатать
Просмотров: 133


2003 - Meteora - Lolcity
l/linkin park/Lolcity
Tabs by Joe Muggah
x - mute h-hammeron  - slide
Standard Tuning

Chorus: Repeat x5
e|-------------------------------5----5----5-----
B|---------------------------------5----5----5---
G|-------------------------6--6-----------------
D|-------------------------x--x------------------
A|---------0-0-------------8--8------------------
E|-2-2---------0-0--2-2--------------------------

e|-5----6---10-----10----------------------------
B|---5----8----10------10------------------------
G|-----------------------------10-10-------------
D|------------------------------x--x-------------
A|------------------------------9--9--0-0--------
E|----------------------------------------0-0-2-2


Добавлено: 16.09.2013
Другие материалы по этой песне:
  • Аккорды и текст

Страница создана 16.09.2013
http://primanota.ru/linkin-park/lolcity-chords.htm
Привет, Гость.
Предлагаем пройти революционный курс по гитаре.
Подарок от PrimaNota.Ru, забирай!