PrimaNota.ru - самый крупный в мире бесплатный архив песенных текстов, аккордов, табулатур и нот


Linkin Park - Halo - таба, видео

Регистрация Запомнить меня
Войти через:  Facebook Google Twitter Vk Yandex Mail.ru

Linkin Park - Halo - таба, видео

Печатать
Просмотров: 290
Tabbed by Hass

Db Ab Db Gb Bb Eb Distorted

Lead part

overview

Harmonic parts

|----------------------------------------------------------------|
|------------------------7*--------------------------------------|
|----12*---7*---12*------------7*--------------------------------| x2
|--------7*--7*--------------0-----------------------------------|
|----------------------------------------------------------------|
|----------------------------------------------------------------|

|------------12*~-----------------------------------------------|
|-----7*-----------7*-------------------------------------------|
|--5*-------------------7*~-------------------------------------|  x1
|--------------------0------------------------------------------|  
|---------------------------------------------------------------|
|---------------------------------------------------------------|

Chords played at heavy chorus

|-----------------------------------------------------------------|
|-----------------------------------------------------------------|
|-----------------------------------------------------------------|
|-2~------0~-------7~------5~-------------------------------------|
|-2~------0~-------7~------5~-------------------------------------|
|-2~------0~-------7~------5~-------------------------------------|

Bridge

|-----------------------------------------------------------------|
|-----------------------------------------------------------------|
|-----------------------------------------------------------------|
|-3-3-----3333---3333----3333---3333---x-0------------------------|
|-3-3-----3333---3333----3333---3333---x-0------------------------|
|-3-3-----3333---3333----3333---3333---x-0------------------------|
Добавлено: 12.04.2012
Другие материалы по этой песне:
  • Аккорды и текст

Страница создана 12.04.2012
http://primanota.ru/linkin-park/halo-chords.htm
Привет, Гость.
Предлагаем пройти революционный курс по гитаре.
Подарок от PrimaNota.Ru, забирай!