PrimaNota.ru - самый крупный в мире бесплатный архив песенных текстов, аккордов, табулатур и нот


Linkin Park - Faint1 - таба, видео

Регистрация Запомнить меня
Войти через:  Facebook Google Twitter Vk Yandex Mail.ru

Linkin Park - Faint1 - таба, видео

Печатать
Просмотров: 113


Dropped D and tuned down 1/2 step (Dropped Db or C#)


Chorus A (Guitar 1)
eb-----------------------------------------------------------
Bb-----------------------------------------------------------
Gb-----------------------------------------------------------
Db--0-0-0-0-0-0-0--3-3-3-3-3-3-3--8-8-8-8-8-8-8--5-5-5-7-3-3-
Ab--0-0-0-0-0-0-0--3-3-3-3-3-3-3--8-8-8-8-8-8-8--5-5-5-7-3-3-
Db--0-0-0-0-0-0-0--3-3-3-3-3-3-3--8-8-8-8-8-8-8--5-5-5-7-3-3-


Chorus B (Guitar 2)
eb-----------|-----------------------------------------------
Bb-----------|-----------------------------------------------
Gb--7-7-7-7--|--7-7-7--14--12---7--14--10--------------------
Db--x-x-x-x--|--x-x-x---x---x---x---x---x--------------------
Ab--5-5-5-5--|--5-5-5--12--10---5--12---8--------------------
Db-----------|-----------------------------------------------


Verse
eb-----------------------------------------------------------
Bb-----------------------------------------------------------
Gb-----------------------------------------------------------
Db--0-0------------0-0------------0-0----8-8----0-0----------
Ab--0-0------------0-0------------0-0----8-8----0-0----------
Db--0-0------------0-0------------0-0----8-8----0-0----------


Post-Chorus
eb-----------------------------------------------------------
Bb-----------------------------------------------------------
Gb-----------------------------------------------------------
Db--3-3-3-3-3-3-3-3------------------------------------------
Ab--3-3-3-3-3-3-3-3------------------------------------------
Db--3-3-3-3-3-3-3-3------------------------------------------


Bridge
eb-----------------------------------------------------------
Bb-----------------------------------------------------------
Gb-----------------------------------------------------------
Db--0--7-3-0-3-2-------0--7-3-0-3-2--------------------------
Ab--0--7-3-0-3-2-------0--7-3-0-3-2--------------------------
Db--0--7-3-0-3-2-------0--7-3-0-3-2--------------------------

I don't think the bridge sounds right.. but i found a way i think it is played, it sounds better (I Think)
eb-----------------------------------------------------------
Bb-----------------------------------------------------------
Gb-----------------------------------------------------------
Db--0--7-0-2-3--------0--7-0-2-3-----------------------------
Ab--0--7-0-2-3--------0--7-0-2-3-----------------------------
Db--0--7-0-2-3--------0--7-0-2-3-----------------------------

Outro
eb-----------------------------------------------------------
Bb-----------------------------------------------------------
Gb-----------------------------------------------------------
Db--3-3-3-3-3--1-1-------------------------------------------
Ab--3-3-3-3-3--1-1-------------------------------------------
Db--3-3-3-3-3--1-1-------------------------------------------



Chorus A, B
Verse
Chorus A, B
Post-Chorus
Verse
Chorus A, B
Post-Chorus
Bridge
Chorus A, B
Outro


Добавлено: 09.02.2014
Другие материалы по этой песне:
  • Аккорды и текст

Страница создана 09.02.2014
http://primanota.ru/linkin-park/faint1-chords.htm
Привет, Гость.
Предлагаем пройти революционный курс по гитаре.
Подарок от PrimaNota.Ru, забирай!