PrimaNota.ru - самый крупный в мире бесплатный архив песенных текстов, аккордов, табулатур и нот


Link Wray - Ace Of Spades - таба, видео

Регистрация Запомнить меня
Войти через:  Facebook Google Twitter Vk Yandex Mail.ru

Link Wray - Ace Of Spades - таба, видео

Печатать
Просмотров: 376
Уроки эстрадного вокала в Санкт-Петербурге
Авторы: Link Wray, Milton Grant

e-----------|x2   e----------2--| 
B-1--3--2---|     B----------3--|
G-2--4--2---|     G-2--2-----2--|
D-3--5--2---|     D-2--2-----0--|
A-3--5--0---|     A-0--3b-0-----|
E-0--0--0---|     E-------------|

e-----------|--------------------------------------------|
B-1--3--2---|-12-12-----12-12-----12-12-----12-15-12-----|
G-2--4--2---|-------14b-------14b-------14b----------14b-|
D-3--5--2---|--------------------------------------------|
A-3--5--0---|--------------------------------------------|
E-0--0--0---|--------------------------------------------|

e--------------------------------------| e-----------|
B-7-7----7-7----7-7----7----7------2---| B-1--3--2---|
G-----9b-----9b-----9b---9b---9b---2---| G-2--4--2---|
D----------------------------------2---| D-3--5--2---|
A----------------------------------0---| A-3--5--0---|
E----------------------------------0---| E-0--0--0---|

e---------2--|
B---------3--|
G-2-2-----2--|
D-2-2-----0--|
A-0-3b-0-----|
E------------|

e-----------|---------------------------------------| 
B-1--3--2---|-12-12----12-12---12-12----12-15-12----|
G-2--4--2---|-------14-------14------14----------14-|
D-3--5--2---|---------------------------------------|
A-3--5--0---|---------------------------------------|
E-0--0--0---|---------------------------------------|

e---------------------------------|
B-7-7---7-7---7-7---7---7-----2---|
G-----9-----9-----9---9---9---2---|
D-----------------------------2---|
A-----------------------------0---|
E-----------------------------0---|

e-----------------------------------| 
B-----------------------------------| 
G-----------------------------------|
D-2-2---2-2-2-2---2-2-2-2---2----2--|
A-0-0---0-0-0-0---0-0-0-0---0-3b-0--|
E-----3---------3---------3---------|

e----------------------------------------|
B----------------------------------------|
G----------------------------------------|
D-2-2---2-2-2-2---2-2-2-2---2-2-2-2---2--|
A-0-0---0-0-0-0---0-0-0-0---0-0-0-0---0--|
E-----3---------3---------3---------3----|

e-----------------------------------|
B-----------------------------------|
G-2-2---2-2-2-2---2-2-2-2---2----2--|
D-0-0---0-0-0-0---0-0-0-0---0-3b-0--|
A-----3---------3---------3---------|
E-----------------------------------|

e----------------------------------------| 
B----------------------------------------| 
G-2-2---2-2-2-2---2-2-2-2---2-2-2-2---2--|
D-0-0---0-0-0-0---0-0-0-0---0-0-0-0---0--|
A-----3---------3---------3---------3----|
E----------------------------------------|

Thats everything, just sort out the order and the amount 
of time parts are repeated, its pretty simple though. 
Thanks for taking a look, im also open to corrections :)
Добавлено: 25.04.2012
Другие материалы по этой песне:
  • Аккорды и текст

Страница создана 25.04.2012
http://primanota.ru/link-wray/ace-of-spades-chords.htm
Привет, Гость.
Предлагаем пройти революционный курс по гитаре.
Подарок от PrimaNota.Ru, забирай!