PrimaNota.ru - самый крупный в мире бесплатный архив песенных текстов, аккордов, табулатур и нот


Link 80 - Enough - аккорды и текст, бас-таба, видео

Регистрация Запомнить меня
Войти через:  Facebook Google Twitter Vk Yandex Mail.ru

Link 80 - Enough - аккорды и текст, бас-таба, видео

Печатать
Просмотров: 150
Enough
Link 80
LINK 80-ENOUGH
 
tabbed by BEN MEYER benm@oakweb.com


INTRO:

G:--------------------------------@---------------------------1-----
D:-------------------4-------1----@-------------------4---2-2---2---
A:-----22-4-4--4-5-5---5-2-2---2--@---------22-4-4--4-5-5---5-------
E:-2-2----------------------------@-----2-2-------------------------


(PLAY BEFORE STARS 1 TIME THEN GO TO AFTER STARS AND PLAY IT 1 TIME)


VERSE:

G:---------------------------------------------------------------
D:-----------------------------------------------------2-2--2----
A:---------4-4--4-5-5--5-2-2--2----------4-4--4-5-5--5-----------
E:-2-2--2------------------------2-2--2--------------------------




CHORUS:

G:-------------------------------------------------------------------
D:-----------------------------------------------------2-------------
A:-----4-5-5-5-5-5-5-5-5-4-2-2-2-----4-5-5-5-5-5-5-5-5---5-4-2-2-2-2-
E:-2-2---------------------------2-2---------------------------------


OUTRO:

G:---------@------------------------------------
D:---------@-----------3-4-3---4-5-4------------     (REPEAT PART BEFORE 
A:---4-5---@---2-3-2-4-------5----------6-7-6---      STARS 2 TIMES AND PLAY
E:-2-----7-@-2------------------------7---------      AFTER STARS 2 TIMES)
Добавлено: 04.10.2013
Другие материалы по этой песне:
  • Аккорды и текст

Страница создана 24.05.2012
http://primanota.ru/link-80/enough-chords.htm
Привет, Гость.
Предлагаем пройти революционный курс по гитаре.
Подарок от PrimaNota.Ru, забирай!