PrimaNota.ru - самый крупный в мире бесплатный архив песенных текстов, аккордов, табулатур и нот


Ling Tosite Sigure - Telecaster No Shinjutsu - таба, видео

Регистрация Запомнить меня
Войти через:  Facebook Google Twitter Vk Yandex Mail.ru

Ling Tosite Sigure - Telecaster No Shinjutsu - таба, видео

Печатать
Просмотров: 245
tabs by Yosukun from Germany

Song: Telecaster no Shinjutsu
Artist: Ling Tosite Sigure
Album: #4

Ling Tosite Sigure (Rin Toshite Shigure) is a alternative rock band from Saitama, Japan.
It also has some hardcore influences. The three members play instruments on a very
advanced level. Characteristics of their music are their high voices and screams. The 
guitarist Toru "TK" Kitajima likes to mess around with a whole bunch of effect pedals and stuff.
He usually uses flanger, fuzz, delay and sometimes distortion pedals. Also some effects 
that are similar to pitch shifters of whammy pedals, but they have their own unique 
sound, so I don't know how to name them.


NOTE:
This always has been one of my favorite songs by Ling Tosite Sigure. I like to play it
because it has a very catchy rythm. The guitar parts themselves are not that hard. They
might be difficult because they sound very different from each other. Also, there a very 
often abrupt and unexpected changes of the tempo. In order to play that song 100%
album-like you definitely need a flanger/chorus pedal.


Tuning: Half-step down EbAbDbGbHbeb

^ Hammer-on/Pull-offs
/ Slides
* Feedback on this note
. Staccato
(x) Ghost Note
b/r bending



INTRO


-12---12-12-x------12---12-12-x------15-x--|
-13---13-13-x------12---12-12-x------13-x--|
-12---12-12-x------12---12-12-x------12-x--|
-14---14-14-x------14---14-14-x------14-x--|
-12---12-12-x------12---12-12-x------12-x--|
-------------------------------------------|

-10---10-10-x------8----8--8--x------8--x--|
-10---10-10-x------8----8--8--x------8--x--|
-12---12-12-x------10---10-10-x------10-x--|
-12---12-12-x------10---10-10-x------10-x--|
-10---10-10-x------8----8--8--x------8--x--|
-------------------------------------------|this whole riff 3x, then:




0:10

-12---12-12-x---------------------|----------0~~~~~0--0~~------|
-13---13-13-x---------------------|----------------0--0~~------|
-12---12-12-x---------------------|----------------10-10-------|
-14---14-14-x---------------------|------12-------/10-10-------|
-12---12-12-x---------------------|--10-----------/8--8--------|
----------------------------------|----------------------------|




0:13

-0---0-0-x------0---0-0-x------0-x--|---------x--------------x-------x--|
-1---1-1-x------0---0-0-x------3-x--|-3---3-3-x------1---1-1-x-----1-x--|
-2---2-2-x------2---2-2-x------2-x--|-4---4-4-x------2---2-2-x-----2-x--|
-2---2-2-x------2---2-2-x------2-x--|-5---5-5-x------3---3-3-x-----3-x--|x3
-0---0-0-x------0---0-0-x------0-x--|---------x--------------x-------x--|then
------------------------------------|-----------------------------------|

                                     use flanger here
-0---0-0-x------0---0-0-x------0-x--|------------------------------------|
-1---1-1-x------0---0-0-x------3-x--|-3-3-3-3-3-3-3-3--1-1-1-1-1-1-1-1---|
-2---2-2-x------2---2-2-x------2-x--|-4-4-4-4-4-4-4-4--2-2-2-2-2-2-2-2---|
-2---2-2-x------2---2-2-x------2-x--|-5-5-5-5-5-5-5-5--3-3-3-3-3-3-3-3---|
-0---0-0-x------0---0-0-x------0-x--|------------------------------------|
------------------------------------|------------------------------------|




0:27

-12-12-12-12-12-12-12-12--|-10---10-10-x------8----8--8--x------8--x--|
-13-12-13-12-13-12-13-12--|-10---10-10-x------8----8--8--x------8--x--|
-12-12-12-12-12-12-12-12--|-12---12-12-x------10---10-10-x------10-x--|
-14-14-14-14-14-14-14-14--|-12---12-12-x------10---10-10-x------10-x--|
-12-12-12-12-12-12-12-12--|-10---10-10-x------8----8--8--x------8--x--|x2
--------------------------|-------------------------------------------|

-0-0-0-0-0-0-0-0-----|---------x--------------x-------x--|
-1-0-1-0-1-0-1-0-----|-3---3-3-x------1---1-1-x-----1-x--|
-2-2-2-2-2-2-2-2-----|-4---4-4-x------2---2-2-x-----2-x--|
-2-2-2-2-2-2-2-2-----|-5---5-5-x------3---3-3-x-----3-x--|
-0-0-0-0-0-0-0-0-----|---------x--------------x-------x--|
---------------------|-----------------------------------|

-0-0-0-0-0-0-0-0-----|-----------------------------------|
-1-0-1-0-1-0-1-0-----|-3---3-3-3------1---1-1-1-----1-1--|
-2-2-2-2-2-2-2-2-----|-4---4-4-4------2---2-2-2-----2-2--|
-2-2-2-2-2-2-2-2-----|-5---5-5-5------3---3-3-3-----3-3--|
-0-0-0-0-0-0-0-0-----|-----------------------------------|
---------------------|-----------------------------------|





VERSE 1

(no guitar in the first half of the verse; guitar enters at 0:51)

use flagner in the verse
----0----|-------------------------------------------------|
----1^0--|-----1^0----------1^0---------1^0----------3^0--o|
-2--2----|---2------------2-----------2------------4-------|
-2-------|-2----------0^2-----------3----------3/5---------|
-0-------|-0~~~~~~~~~~0-----------------------------------o|x3, then
---------|-------------------------------------------------|

-----------------------------------0-----0-------|--------------------------|
-----1^0----------1^0--------0--------------0----|--------------------------|
---2------------2---------------2-----3----------|-9-9-9-9---9-9-9-9---9-9--|
-2----------0^2-----------3----------------------|-9-9-9-9---9-9-9-9---9-9--|
-0~~~~~~~~~~0------------------------------------|-7-7-7-7---7-7-7-7---7-7--|
-----------------------3-------------------------|--------------------------|





CHORUS
1:07

------------------------------------------------------------|
------------------------------------------------------------|
-4-4---4-4-4-----------------7-7---7-7-7--------------------|
-4-4---4-4-4---5-5-5---5-5---7-7---7-7-7---7-7-7---7-7------|
-2-2---2-2-2---5-5-5---5-5---5-5---5-5-5---7-7-7---7-7------|x4
---------------3-3-3---3-3-----------------5-5-5---5-5------|




1:23


---------0-----0------------0-----0-----------0-----0------------0-----0-|
-----1-------1----------1-------1---------3-------3----------3-------3---|
-------2---2----------2---2---2---------0---0---0----------0---0---0---0-|
---2----------------3----------------------------------------------------|
-0------------------------------------3------------------2---------------|x4
-------------------------------------------------------------------------|





POST-CHORUS
1:41

------x-x-x-x--------x-x-x-x---------x-x-----|
------x-x-x-x--------x-x-x-x---------x-x-----|x4 (3rd/4th time with flanger)
-7^5--x-x-x-x---7^5--x-x-x-x----7^5--x-x-----|
------x-x-x-x--------x-x-x-x---------x-x-----|(4th time: instead of 7^5
---------------------------------------------|play 7b9 at the third time)
---------------------------------------------|


---------------------------------------------|
---------------------------------------------|
--5-7-5-7-7-7-5-7-7-7-5-7b8r7b9r7------------|
---------------------------------------------|
---------------------------------------------|x4
---------------------------------------------|

                              **
-0-5^0-0-7^0-0-8^0-0-7^0-0-10/12-------------|
---------------------------------------------|
---------------------------------------------|
---------------------------------------------|
---------------------------------------------|x1
---------------------------------------------|

                               **
-0-12^0-0-10^0-0-8^0-0-7^0-0-8/10------------|
---------------------------------------------|
---------------------------------------------|
---------------------------------------------|
---------------------------------------------|x1
---------------------------------------------|

                              **
-0-5^0-0-7^0-0-8^0-0-7^0-0-10/12-------------|
---------------------------------------------|
---------------------------------------------|
---------------------------------------------|
---------------------------------------------|x1
---------------------------------------------|


(Short break with feedback)






CHORUS
2:06

------------------------------------------------------------|
------------------------------------------------------------|
-4-4---4-4-4-----------------7-7---7-7-7--------------------|
-4-4---4-4-4---5-5-5---5-5---7-7---7-7-7---7-7-7---7-7------|
-2-2---2-2-2---5-5-5---5-5---5-5---5-5-5---7-7-7---7-7------|x6
---------------3-3-3---3-3-----------------5-5-5---5-5------|


2:28
with delay effect
-(0)----(0)---------------|
--1------1------3------3--|
--2------2------0------0--|
--2------3------0------0--|
--0-------------3------2--|x2
--------------------------|





INTERLUDE
2:37
(hard rythm, try to find it out by yourself)
                . . . .                 . . . . . . .
----------------------------------------------------------|
----------------------------------------------------------|
-4-4---4-4-4--------------7-7---7-7-7---7-----------------|
-4-4---4-4-4----5-5-5-5---7-7---7-7-7---7-7-7-7-7-7-7-----|
-2-2---2-2-2----5-5-5-5---5-5---5-5-5---5-7-7-7-7-7-7-----|
----------------3-3-3-3-------------------5-5-5-5-5-5-----|





CHORUS
2:42

------------------------------------------------------------|
------------------------------------------------------------|
-4-4---4-4-4-----------------7-7---7-7-7--------------------|
-4-4---4-4-4---5-5-5---5-5---7-7---7-7-7---7-7-7---7-7------|
-2-2---2-2-2---5-5-5---5-5---5-5---5-5-5---7-7-7---7-7------|x4
---------------3-3-3---3-3-----------------5-5-5---5-5------|




OUTRO
3:00


-0---0-0-x------0---0-0-x------0-x--|---------x--------------x-------x--|
-1---1-1-x------0---0-0-x------3-x--|-3---3-3-x------1---1-1-x-----1-x--|
-2---2-2-x------2---2-2-x------2-x--|-4---4-4-x------2---2-2-x-----2-x--|
-2---2-2-x------2---2-2-x------2-x--|-5---5-5-x------3---3-3-x-----3-x--|
-0---0-0-x------0---0-0-x------0-x--|---------x--------------x-------x--|x1
------------------------------------|-----------------------------------|


-----------------------|---------x--------------x-------x--|
-----1^0----------1^0--|-3---3-3-x------1---1-1-x-----1-x--|
---2------------2------|-4---4-4-x------2---2-2-x-----2-x--|
-2----------0^2--------|-5---5-5-x------3---3-3-x-----3-x--|
-0~~~~~~~~~~0----------|---------x--------------x-------x--|x1
-----------------------|-----------------------------------|



-12---12-12-x------12---12-12-x------15-x--|
-13---13-13-x------12---12-12-x------13-x--|
-12---12-12-x------12---12-12-x------12-x--|
-14---14-14-x------14---14-14-x------14-x--|
-12---12-12-x------12---12-12-x------12-x--|
-------------------------------------------|

-10---10-10-x------8----8--8--x------8--x--|
-10---10-10-x------8----8--8--x------8--x--|
-12---12-12-x------10---10-10-x------10-x--|
-12---12-12-x------10---10-10-x------10-x--|
-10---10-10-x------8----8--8--x------8--x--|this whole riff x2
-------------------------------------------|




-0-0-0-0-0-0-0-0-----|-----------------------------------|
-1-0-1-0-1-0-1-0-----|-3---3-3-3------1---1-1-1-----1-1--|
-2-2-2-2-2-2-2-2-----|-4---4-4-4------2---2-2-2-----2-2--|
-2-2-2-2-2-2-2-2-----|-5---5-5-5------3---3-3-3-----3-3--|
-0-0-0-0-0-0-0-0-----|-----------------------------------|x2
---------------------|-----------------------------------|



                                              .   .   .   .
-12-12-12-12----12-12-12-12----12-12-12-12----15--15--15--15--|
-13-13-13-13----13-13-13-13----13-13-13-13----12--12--12--12--|
-12-12-12-12----12-12-12-12----12-12-12-12----13--13--13--13--|
-14-14-14-14----14-14-14-14----14-14-14-14----14--14--14--14--|
-12-12-12-12----12-12-12-12----12-12-12-12----12--12--12--12--|x1
--------------------------------------------------------------|


---------7*---------7*------7*--7*-------7*-------7*~---------|
------7*------7*-7*---------7*--------------7*----7*~---------|
---7*---------7*---------7*-----------7*----------7*~---------|
--------------------------------------------------7*~---------|
--------------------------------------------------------------|
--------------------------------------------------------------|
Добавлено: 24.08.2013
Другие материалы по этой песне:
  • Аккорды и текст

Страница создана 24.08.2013
http://primanota.ru/ling-tosite-sigure/telecaster-no-shinjutsu-chords.htm
Привет, Гость.
Предлагаем пройти революционный курс по гитаре.
Подарок от PrimaNota.Ru, забирай!