PrimaNota.ru - самый крупный в мире бесплатный архив песенных текстов, аккордов, табулатур и нот


Ling Tosite Sigure - A Over Die - бас-таба, видео

Регистрация Запомнить меня
Войти через:  Facebook Google Twitter Vk Yandex Mail.ru

Ling Tosite Sigure - A Over Die - бас-таба, видео

Печатать
Просмотров: 250
-----------------------------------------------------------------------------
     a over die - Ling Tosite Sigure (凛として時雨 - 
Rin Toshite Shigure)
-----------------------------------------------------------------------------

Tabbed by: Keko94

\ Slide down
/ Slide up
h Hammer on
p Pull out
Standard Tuning (EADG)


G|---------------------------|
D|---------------------------|
A|---------3--4-4-4/6-6------| x2
E|-1-1-1/3-------------------|

G|---------------------------|
D|--------3--------3-------3-|
A|---------------------------|
E|-1-1-1-----1-1-1---1-1-1---|

(Let every fourth "4" ring longer)

G|---------------------------------------------------------|
D|---------------------------------------------------------|
A|------------3-4-4-4--4--4-4-4--4--4-4-4--4--4-4-4--4-----|
E|-1-1-1--1-3------------------------------------------6-4-|

G|---------------------------|
D|--------3--------3-------3-|
A|---------------------------|
E|-1-1-1-----1-1-1---1-1-1---|

G|---------------------------------------------------------|
D|---------------------------------------------------------|
A|------------3-4-4-4--4--4-4-4--4--4-4-4--4--4-4-4--4-----|
E|-1-1-1--1-3------------------------------------------6-4-|

(Guitar break)

Resume at 0:38 aprox.

G|------------|
D|-----10-8\--|
A|---8--------|
E|------------|

G|---------------------------|
D|--------3--------3-------3-|
A|---------------------------|
E|-1-1-1-----1-1-1---1-1-1---|

G|---------------------------------------------------------|
D|---------------------------------------------------------|
A|------------3-4-4-4--4--4-4-4--4--4-4-4--4--4-4-4--4-----|
E|-1-1-1--1-3------------------------------------------6-4-|

G|---------------------------|
D|--------3--------3-------3-|
A|---------------------------|
E|-1-1-1-----1-1-1---1-1-1---|

G|---------------------------------------------------------|
D|---------------------------------------------------------|
A|------------3-4-4-4--4--4-4-4--4--4-4-4--4--4-4-4--4-----|
E|-1-1-1--1-3------------------------------------------6-4-|

1:04 -Bass Solo- (Use a Chorus effect, if possible)

G|-------8-8h10p8---------8-6-5--------6--/12-13---12h13p12-----------|
D|----10----------10----6-------6----6----------------------13-12-10\-|
A|--8-----------------6------------4-------------------.--------------| x2
E|--------------------------------------------------------------------|

(Guitar Break)

Resume at 1:25 aprox.

G|-------------------------10-8-|
D|---10-8---10-8----10-8--------|
A|-8------8------88------8------|
E|------------------------------|

G|-------------------------10-8-----|
D|---10-8---10-8----10-8--------10\-|
A|-8------8------88------8----------|
E|----------------------------------|

Stop. Play at 1:35 aprox.

G|-----------------------10-8----|
D|----------------10-8--------8\-|
A|------8\------8------8---------|
E|-------------------------------|

G|---------------------------|
D|---------------------------|
A|---------3--4-4-4/6-6------| x4
E|-1-1-1/3-------------------|

G|------------|
D|-----10-8\--|
A|---8--------|
E|------------|

G|------------------------|
D|------------------------|
A|--------333-4-4-44-66\--| x2
E|-1-1-11-----------------|

G|-----------------------|
D|--------------6--------|
A|-----6--333-4--4--66\--| x2
E|-1-3-------------------|

G|------------------------------10-8----|
D|---10-8---10-8----10-8--10-8------10--|
A|-8------8------8------8------8--------| x4
E|--------------------------------------|

G|----------10-8---|
D|---10-8-------10-|
A|-8------8--------|
E|-----------------|

G|------------------------|
D|------------------------|
A|--------333-4-4-44-66\--| x10
E|-1-1-11-----------------|

G|----------------------------|
D|------------6-----11--------|
A|-----6-33-4---4/11---11-11/-| x4
E|-1-3------------------------|

G|---------------8-10-|
D|---10-8-6-6666------|
A|-8------------------| x4
E|--------------------|

Play this a lot of times, increasing its speed, adding notes to the chord or playing it 
a different way until 3:21 aprox.

G|--------|
D|---10-8-|
A|-8------|
E|--------|

G|--------------------------------|
D|--------------------------------|
A|-----------------6-6--6--6-6--6-|
E|-1-1--1--1-1--1-----------------|

G|---------------------------|
D|--------3--------3-------3-|
A|---------------------------|
E|-1-1-1-----1-1-1---1-1-1---|

G|-----------------------------------------------|
D|-----------------------------------------------|
A|------------3-4-4-4--44--4-4-4--44--4-4-4--44--|
E|-1-1-1--1-3------------------------------------|

(Short Guitar break and end with this)

G|------|
D|------|
A|-4-44-|
E|------|
Добавлено: 28.10.2013
Другие материалы по этой песне:
  • Аккорды и текст

Страница создана 28.10.2013
http://primanota.ru/ling-tosite-sigure/a-over-die-chords.htm
Привет, Гость.
Предлагаем пройти революционный курс по гитаре.
Подарок от PrimaNota.Ru, забирай!