PrimaNota.ru - самый крупный в мире бесплатный архив песенных текстов, аккордов, табулатур и нот


Linea 77 - The Sharp Sound Of Blades - бас-таба, видео

Регистрация Запомнить меня
Войти через:  Facebook Google Twitter Vk Yandex Mail.ru

Linea 77 - The Sharp Sound Of Blades - бас-таба, видео

Печатать
Просмотров: 138
Linea 77 - The sharp sound of blades
from "Horror vacui"

Tabbed by gab|503
blacksheep@superdada.com

Drop D tuning (DADG)

~=let ring

Intro: (0:10)
G|-----------------------------------------------------|
D|-----------------------------------------------------|
A|-----------------------------------------------------|
D|-3-0-0-0--0--5-0-0-0--0--7-0-0-0--0--8-0-0--10-0-0---|

|----------------------------------------------------|x 2
|----------------------------------------------------|
|----------------------------------------------------|
|-8-0-0-0--0--7-0-0-0--0--5-0-0-0--0--3-0-0--2-0-0---|


Verse:
|------------------------------------------------------------------------|
|------------------------------------------------------------------------|
|------------------------------------------------------------------------|
|-12--12--12--12--12--12--12--12-\-10--10--10--10--10--10--10--10--10-\--|

|-------------------------------------------------|x 2
|-------------------------------------------------|
|-------------------------------------------------|
|-8--8--8--8--8--8--8--8-\-7--7--7--7--7--7--7--7-|

|-----------------------|
|-----------------------|
|-----------------------|
|-5--5~------7---7~-----|

Chorus:
|--------------------------------------------------------------------------|
|--------------------------------------------------------------------------|
|--------------------------------------------------------------------------|
|-0---0---0---0---0----3---3---3---3---3----5--5--5--5--5--5--5--5----7~---|

|-------------------------------------------------------------------|-----|
|o-----------------------------------------------------------------o|-----|
|o-----------------------------------------------------------------o|-----|
|--8---8---8--8---8---5---5---5--5---5----0--0--0----0--0--0---/8\--|-0---|
   |  play  these  following  drums  |
                                 

Rest

Intro starting from D|-8-0-0--0--0--|

Verse

Chorus

Mini-breakdown: (2:35-2:40)
|----------------------------|
|----------------------------|
|----------------------------|
|-0--0--0-----0--0--0---/8\--|

Bridge (fast part):
|---------------------------------|--------|
|---------------------------------|--------|
|---------------------------------|--------|
|-0-0-0-0-0-0-0-0-0-0-0-0-0-0-0-0-|-2~-----|

|---------------------------------|---------------------------------|
|---------------------------------|---------------------------------|
|---------------------------------|---------------------------------|
|-3-3-3-3-3-3-3-3-3-3-3-3-3-3-3-3-|-2-2-2-2-2-2-2-2-2-2-2-2-2-2-2-2-|

|---------------------------------|---------------------------------|
|---------------------------------|---------------------------------|
|---------------------------------|---------------------------------|
|-0-0-0-0-0-0-0-0-0-0-0-0-0-0-0-0-|-2-2-2-2-2-2-2-2-2-2-2-2-2-2-2-2-|

|---------------------------------|---------------------------------|
|---------------------------------|---------------------------------|
|---------------------------------|---------------------------------|
|-3-3-3-3-3-3-3-3-3-3-3-3-3-3-3-3-|-2-2-2-2-2-2-2-2-2-2-2-2-2-2-2-2-|

|---------------------------------|---------------------------------|
|---------------------------------|---------------------------------|
|---------------------------------|---------------------------------|
|-5-5-5-5-5-5-5-5-5-5-5-5-5-5-5-5-|-7-7-7-7-7-7-7-7-7-7-7-7-7-7-7-7-|

Outro:
|------------------------------------|
|------------------------------------|
|------------------------------------|
|-0~------3~------5-5~------7-7~-----|

|------------------------------------------------|
|------------------------------------------------|
|------------------------------------------------|
|-0--0--0--0--0--0--0--0--3--3--3--3--3--3--3--3-|

|------------------------------------------------|
|------------------------------------------------|
|------------------------------------------------|
|-5--5--5--5--5--5--5--5--7--7--7--7--7--7--7--7-|

|----------------------------------------|
|----------------------------------------|
|----------------------------------------|
|-8~------5~------5~------8~-----0~~-----|

enjoy!




Добавлено: 08.04.2012
Другие материалы по этой песне:
  • Аккорды и текст

Страница создана 08.04.2012
http://primanota.ru/linea-77/the-sharp-sound-of-blades-chords.htm
Привет, Гость.
Предлагаем пройти революционный курс по гитаре.
Подарок от PrimaNota.Ru, забирай!