PrimaNota.ru - самый крупный в мире бесплатный архив песенных текстов, аккордов, табулатур и нот


Linea 77 - Sogni Risplendono - таба, видео

Регистрация Запомнить меня
Войти через:  Facebook Google Twitter Vk Yandex Mail.ru

Linea 77 - Sogni Risplendono - таба, видео

Печатать
Просмотров: 132
Уроки эстрадного вокала в Санкт-Петербурге
Авторы музыки: Nicola Sangermano, Davide Pavanello, Paolo Pavanello, Christian Montanarella, Tiziano Ferro, Emiliano Carlo Audisio

Linea 77 - Sogni risplendono

tabbed by: gab|503

tuning: drop D

~= vibrato
<12>= natural harmonic


Intro:

e|--------------------------------------------------------| Guitar 1
B|--------------------------------------------------------|
G|--------------------------------------------------------|
D|--------------------------------------------------------|
A|-----8-8----5-----8-8----10-----8-8----7-----5--5--5----|
D|--0------0-----0------0------0------0-----0-------------|
 |                                                        |
e|--------------------------------------------------------| Guitar 2
B|--------------------------------------------------------|
G|--------------------------------------------------------|
D|--0-----------------------------------------------------|
A|--0-----------------------------------------------------|
D|--0-----------------------------------------------------|

e|--------------------------------------------------------| Guitar 1
B|--------------------------------------------------------|
G|--------------------------------------------------------|
D|--------------------------------------------------------|
A|-----8-8----5-----8-8----10-----8-8----7-----5--5--5----|
D|--0------0-----0------0------0------0-----0-------------|
 |                                                        |
e|--------------------------------------------------------| Guitar 2
B|--------------------------------------------------------|
G|--------------------------------------------------------|
D|--0-----------------------------------------------------|
A|--0------------------------------------------0--0-------|
D|--0------------------------------------------0--0-------|


Chorus: x 4

e|--------------------------------------------------------| Guitar 1
B|--------------------------------------------------------|
G|--------------------------------------------------------|
D|--------------------------------------------------------|
A|-----8-8----5-----8-8----10-----8-8----7-----5--5--5----|
D|--0------0-----0------0------0------0-----0-------------|
 |                                                        |
e|--------------------------------------------------------| Guitar 2
B|--------------------------------------------------------|
G|--------------------------------------------------------|
D|---------------------------------------------9-9-9-9-9--|
A|-----8-8----5-----8-8----10-----8-8----7-----8-8-8-8-7--|
D|--0------0-----0------0------0------0-----0-------------|


Verse: x 2

e|----------------------------------------| Both
B|----------------------------------------| 
G|----------------------------------------|
D|----------------------------------------|
A|--5~~~~----4~~~~----5~~~~---------------|
D|-----------------------------5~~~~------|


Pre-Chorus: x 2

e|--------------------------------------------------| 
B|--------------------------------------------------|
G|--------------------------------------------------|
D|--------------------------------------------------|
A|-----8----8------8----8------7----7------7----7---|
D|--0----0------0----0------5----5------5----5------|
                                                                     
e|--------------------------------------------------|-------------| Both
B|--------------------------------------------------|-------------|
G|--------------------------------------------------|-------------|
D|--------------------------------------------------|-------------|
A|-----7----7------7----7-------13-----13-------12--|------12-----|
D|--8----8------8----8------11-----11-------11------|--11---------|
                              stop here the 2nd time             

Interlude:

e|--------------------------------------------------------------------------| Guitar 1
B|-----------------------------------11-------------8--------------6--------|
G|-----/10--9--------9------------------------------------------------------|
D|--------------10------10--8-------------------7--------------7------------|
A|--5---------------------------10----------8--------------5----------------|
D|--------------------------------------------------------------------------|
 |                                                                          |
e|--------------------------------------------------------------------------| Guitar 2
B|--------------------------------------------------------------------------|
G|--------------------------------------------------------------------------|
D|---------------------------------------------------------0---0---0--------|
A|---------------------------------------------------------0---0---0--------|
D|---------------------------------------------------------0---0---0--------|

- Chorus x 4

- Verse x 2

- Pre-Chorus x 2

- Interlude


Bridge:

e|--------------------------------------------------------------------------| Guitar 1
B|-----------------------------------11-------------8--------------6--------|
G|-----/10--9--------9------------------------------------------------------|
D|--------------10------10--8-------------------7--------------7------------|
A|--5---------------------------10----------8--------------5----------------|
D|--------------------------------------------------------------------------|
 |                                                                          |
e|--------------------------------------------------------------------------| Guitar 2
B|--------------------------------------------------------------------------|
G|--------------------------------------------------------------------------|
D|--0----0----0-------5----5----5-------3----3----3-------0----0----0-------|
A|--0----0----0-------5----5----5-------3----3----3-------0----0----0-------|
D|--0----0----0-------5----5----5-------3----3----3-------0----0----0-------|
x 3

e|------------------------------------------------------------------<12>----| Guitar 1
B|-----------------------------------11-------------8----------<12>---------|
G|-----/10--9--------9------------------------------------------------------|
D|--------------10------10--8-------------------7---------------------------|
A|--5---------------------------10----------8--------------5----------------|
D|--------------------------------------------------------------------------|
 |                                                                          |
e|--------------------------------------------------------------------------| Guitar 2
B|--------------------------------------------------------------------------|
G|--------------------------------------------------------------------------|
D|--0----0----0-------5----5----5-------3----3----3-------0----0----0-------|
A|--0----0----0-------5----5----5-------3----3----3-------0----0----0-------|
D|--0----0----0-------5----5----5-------3----3----3-------0----0----0-------|

- Chorus x 4

End note:

e|--------|
B|--------|
G|--------|
D|--0-----|
A|--0-----|
D|--0-----|

That's all. Have fun!

Добавлено: 25.06.2012
Другие материалы по этой песне:

Страница создана 25.06.2012
http://primanota.ru/linea-77/sogni-risplendono-chords.htm
Привет, Гость.
Предлагаем пройти революционный курс по гитаре.
Подарок от PrimaNota.Ru, забирай!