PrimaNota.ru - самый крупный в мире бесплатный архив песенных текстов, аккордов, табулатур и нот


Linea 77 - Mi Vida - бас-таба, видео

Регистрация Запомнить меня
Войти через:  Facebook Google Twitter Vk Yandex Mail.ru

Linea 77 - Mi Vida - бас-таба, видео

Печатать
Просмотров: 126
Linea 77 - Mi vida

Tabbed by gab|503

Drop D tuning (DADG)

Intro:

G|-----------------------------------------------------------------|
D|-----------------------------------------------------------------|
A|--------------------------------------------------------3---5----|
D|--0--5-0-0-7-0-3-0--7-0-0-8-0-5-0--5-0-0-7-0-3-0--3-0-0---0---0--| x 2

Verse:

G|-----------------------------------------|
D|-----------------------------------------|
A|-----------------------------------------|
D|--5-0-0-7---7-0-0-8---5-0-0-7---1-1-1-1--| x 3

G|---------------------------------------------|
D|---------------------------------------------|
A|---------------------------------------------|
D|--5-0-0-7---7-0-0-8---5-0-0-7---1-1-1-1-0-0--|

Pre-Chorus:

G|----------------------------------------|
D|--5-------------------------------------|
A|-----------5--------6--------5----------|
D|----------------------------------------|

G|-------------------------------------------------------------------|
D|-------------------------------------------------------------------|
A|-------------------------------------------------------------------|
D|--5-5-5-5-5-5-5-5-5-5-5-5-5-5-5-5-0-0-0-0-0-0-0-0-0-0-0-0-0-0-0-0--|

G|----------------------------------------------------------------|
D|----------------------------------------------------------------|
A|----------------------------------------------------------------|
D|--1-1-1-1-1-1-1-1-1-1-1-1-1-1-1-1-0-0-0-0-0-0-0-0-12\----12\----|

Chorus:

G|--------------------------------------------------------------------------------------|
D|--------------------------------------------------------------------------------------|
A|--------------------------------------------------------------------------------------|
D|--5-5--5--5--5-5--5-5--0-0--0--0--0-0--0-0--1-1--1--1--1-1--1-1--0-0--0--0--0-0--0-0--|


G|----------------------------------------------------------------------------|
D|----------------------------------------------------------------------------|
A|----------------------------------------------------------------------------|
D|--5-5--5--5--5-5--5-5--0-0--0--0--0-0--0-0--1-1--1--1--1-1--1-1--0-0--0--0--|

Intro

Verse

Pre-Chorus

Chorus

Outro:

G|---------------|
D|---------------|
A|--------3---5--|
D|--3-0-0---0----| x 24
Добавлено: 24.07.2012
Другие материалы по этой песне:
  • Аккорды и текст

Страница создана 24.07.2012
http://primanota.ru/linea-77/mi-vida-chords.htm
Привет, Гость.
Предлагаем пройти революционный курс по гитаре.
Подарок от PrimaNota.Ru, забирай!