PrimaNota.ru - самый крупный в мире бесплатный архив песенных текстов, аккордов, табулатур и нот


Linea 77 - Meat - таба, видео

Регистрация Запомнить меня
Войти через:  Facebook Google Twitter Vk Yandex Mail.ru

Linea 77 - Meat - таба, видео

Печатать
Просмотров: 128
Song: Meat
Album: Too much happiness makes kids paranoid
Band: Linea 77
Author: Meegwon

Tuning: DADGBE

INTRO:

   I don't really know what kind of effects the L77 guitarist use
   during intro but I think they are played with these chords:

E-----------|
B-----------|
G---7---6---|
D---5---4---|
A---5---4---|
D-----------|

VERSE 1:

E--------------------------------------|
B--------------------------------------|   "*" are natural harmonics
G--------------8---------------5*--5*--|
D--------------0-----------------------|
A---000000-0-------000000-0------------|
D---000000-0-------000000-0------------|  (x3)
pm  ^^^^^^ ^       ^^^^^^ ^

E---------------------------------------------|
B---------------------------------------------|
G--------------8------------------------------|
D--------------0-------------0-            ---|
A---000000-0-------000000-0--0-  let ring  ---|
D---000000-0-------000000-0--0-            ---|
pm  ^^^^^^ ^       ^^^^^^ ^

CHORUS:

E--------------------|
B--------------------|
G--------------------|
D---0h444444111555---|
A---0h444444111555---|
D---0h444444111555---| (x3)

E-----------------------------|
B-----------------------------|
G-----------------------------|
D---0h444422222222-22222222---|
A---0h444422222222-22222222---|
D---0h444422222222-22222222---|
pm                 ^^^^^^^^

VERSE 2:

E--------------------------------------|
B--------------------------------------|   "*" are natural harmonics
G--------------8---------------5*--5*--|
D--------------0-----------------------|
A---000000-0-------000000-0------------|
D---000000-0-------000000-0------------|  (x3)
pm  ^^^^^^ ^       ^^^^^^ ^

E---------------------------------------------|
B---------------------------------------------|
G--------------8------------------------------|
D--------------0-------------0-            ---|
A---000000-0-------000000-0--0-  let ring  ---|
D---000000-0-------000000-0--0-            ---|
pm  ^^^^^^ ^       ^^^^^^ ^

CHORUS:

E--------------------|
B--------------------|
G--------------------|
D---0h444444111555---|
A---0h444444111555---|
D---0h444444111555---| (x3)

E--------------------|
B--------------------|
G--------------------|
D---0h444422222222---|
A---0h444422222222---|
D---0h444422222222---|

E--------------------|
B--------------------|
G--------------------|
D---0h444444111555---|
A---0h444444111555---|
D---0h444444111555---| (x3)

E-----------------------------|
B-----------------------------|
G-----------------------------|
D---0h444422222222-22222222---|
A---0h444422222222-22222222---|
D---0h444422222222-22222222---|
pm                 ^^^^^^^^

   Here they repeat the INTRO but I still
   can't figure how to play it.
   Sorry.

BRIDGE:

E----------------------|
B----------------------|
G-----------88888888---|
D-----------xxxxxxxx---|
A---0-00-0-066666666---|
D---0-00-0-0-----------| (x4)
pm  ^ ^^ ^ ^

E--------------------|
B--------------------|  Light palmuting
G--------------------|
D---0-            ---|
A---0-  let ring  ---|
D---0-            ---|

   You have to wait until the psycho part
   is over and then...

E----------------------|
B----------------------|
G-----------88888888---|
D-----------xxxxxxxx---|
A---0-00-0-066666666---|
D---0-00-0-0-----------| (x8)
pm  ^ ^^ ^ ^

CHORUS:

E--------------------|
B--------------------|
G--------------------|
D---0h444444111555---|
A---0h444444111555---|
D---0h444444111555---| (x3)

E--------------------|
B--------------------|
G--------------------|
D---0h444422222222---|
A---0h444422222222---|
D---0h444422222222---|

E--------------------|
B--------------------|
G--------------------|
D---0h444444111555---|
A---0h444444111555---|
D---0h444444111555---| (x3)

E-----------------------------|
B-----------------------------|
G-----------------------------|
D---0h444422222222-22222222---|
A---0h444422222222-22222222---|
D---0h444422222222-22222222---|
pm                 ^^^^^^^^
Добавлено: 17.07.2012
Другие материалы по этой песне:
  • Аккорды и текст

Страница создана 17.07.2012
http://primanota.ru/linea-77/meat-chords.htm
Привет, Гость.
Предлагаем пройти революционный курс по гитаре.
Подарок от PrimaNota.Ru, забирай!