PrimaNota.ru - самый крупный в мире бесплатный архив песенных текстов, аккордов, табулатур и нот


Linea 77 - Fantasma - аккорды и текст, таба, бас-таба, видео

Регистрация Запомнить меня
Войти через:  Facebook Google Twitter Vk Yandex Mail.ru

Linea 77 - Fantasma - аккорды и текст, таба, бас-таба, видео

Печатать
Просмотров: 158
Fantasma
Linea 77



Date: Mon, 26 Sep 2005 15:28:54 +0000
From: Tim Smit 
Subject: l/linea_77/fantasma.crd

The version already on the site was set in Standard tuning, which quite 
defenately has to be dropped-D


Title     : Fantasma
Artist    : Linea 77
Album     : Numb
Capo      : none
Setting   : D-A-D-G-B-E
Tabbed by : Tim Smit
-------------------------------------------------

Gebruikte accoorden;

G  : 5-5-5-X-X-X
B  : 9-9-9-X-X-X en X-2-4-4-X-X
E  : 2-2-2-X-X-X
D  : 0-0-0-X-X-X en X-5-7-7-X-X
D/G: 5-5-7-7-X-X
E* : X-7-X-9-X-X
F#*: X-9-X-11-X-X
F#/B:9-9-11-11-X-X
[nc]: no chord




Intro: D/G en F#/B (2x) (clean)

e:---------------------0h2h3p2p0----0------|
b:--------------------------------3---3-2--|
g:-7--7-7-7--7-7/11-11---------------------|
d:-7--7-7-7--7-7/11-11---------------------|
a:-5--5-5-5--5-5/9--9----------------------|
d:-5--5-5-5--5-5/9--9----------------------|


Verse 1: (distortion)

   G             B             G             B
e:------------------------------------------------------------|
b:------------------------------------------------------------|
g:------------------------------------------------------------|
d:-5-5---5---5-5/9-9---9---9-9/5-5---5---5-5/9----------------|
a:-5-5---5---5-5/9-9---9---9-9/5-5---5---5-5/9-9h10-7h9-5h7---|
d:-5-5---5---5-5/9-9---9---9-9/5-5---5---5-5/9----------------|

   G             B             G             B
e:------------------------------------------------------------|
b:------------------------------------------------------------|
g:------------------------------------------------------------|
d:-5-5-5-5 ------9-9---9---9-9/5-5---5---5-5/9----------------|
a:-5-5-5-5 ------9-9---9---9-9/5-5---5---5-5/9-9h10-7h9-5h7---|
d:-5-5-5-5 ------9-9---9---9-9/5-5---5---5-5/9----------------|

G                                             /B
Vivo  guardando le stesse facce, sentendo le stesse storie
                               /G
Pensando: ho quello che volevo
                                           /B
Come il vento che soffia prima della tempesta
(loopje)
Un brivido percorre la schiena

G  G  G  G 
Le spalle al muro. se ho paura resisto
B
Semplice e' la via per il lato oscuro
/G
poco tempo per correggere gli errori commessi
/B(loopje)
dimmi dove buttero' i miei sogni


Pre-Chorus: (distortion)

e:------------------------------------|
b:------------------------------------|
g:------------------------------------|
d:------------------------------------|
a:---7-5-4-5~--4-0----10-9-7/10~--9-7-|
d:-5----------------9-----------------|(2x)

Dovrei passare tutta la vita a pensare alle cose che ho,
Alle cose che vorrei, al modo di raggiungerle e poi a come difenderle.
Ma io non so cosa avevo prima, e non so quello che ho adesso


Verse 2: (distortion)

   G             B             G             B
e:------------------------------------------------------------|
b:------------------------------------------------------------|
g:------------------------------------------------------------|
d:-5-5---5---5-5/9-9---9---9-9/5-5---5---5-5/9----------------|
a:-5-5---5---5-5/9-9---9---9-9/5-5---5---5-5/9-9h10-7h9-5h7---|
d:-5-5---5---5-5/9-9---9---9-9/5-5---5---5-5/9----------------|

   G             B             G             B
e:------------------------------------------------------------|
b:------------------------------------------------------------|
g:------------------------------------------------------------|
d:-5-5-5-5 ------9-9---9--[nc]-5-5---5---5-5/9----------------|
a:-5-5-5-5 ------9-9---9--[nc]-5-5---5---5-5/9-9h10-7h9-5h7---|
d:-5-5-5-5 ------9-9---9--[nc]-5-5---5---5-5/9----------------|

G                                       /B
Sorrido ad ogni nuovo giorno perche' vivo sperando
                           /G
Che le persone che amo proseguano nel viaggio
                            /B  (loopje)
Stammi affianco ammira dall'alto il paesaggio, la bellezza intorno

G  G  G  G 
Da Torino a Catania, sopra un furgone
    /B                  [nc]
Una breve tappa a Roma, citta' dell'imperatore
G
Indomita Genova, le lacrime di Luglio
   /B (loopje)
infondere paura come forma di controllo


Pre-Chorus: (distortion)

e:------------------------------------|
b:------------------------------------|
g:------------------------------------|
d:------------------------------------|
a:---7-5-4-5~--4-0----10-9-7/10~--9-7-|
d:-5----------------9-----------------|(2x)

(met tekst)
e:------------------------------------|
b:------------------------------------|
g:------------------------------------|
d:------------------------------------|
a:---7-5-4-5~--4-0----10-9-7/10~--9-7-|
d:-5----------------9-----------------| (2x)

Dovrei passare tutta la vita a pensare alle cose che ho,
alle cose che vorrei, al modo di raggiungerle.
E poi a come difenderle. Ma io non so quello che ho adesso 


Chorus: (distortion)

   G                B                G            D     /E*    /F#*
e:-------------------------------------------------------------------------|
b:-------------------------------------------------------------------------|
g:------------------------------------------------7777-9-9-9-9-11-11-11-11-|
d:-555-x-5-5555-555/999-x-9-9999-999555-x-5-5555-7777-X-X-X-X-X--X--X--X--|
a:-555-x-5-5555-555/999-x-9-9999-999555-x-5-5555-5555-7-7-7-7-9--9--9--9--|
d:-555-x-5-5555-555/999-x-9-9999-999555-x-5-5555--------------------------|(2x)


            G
Sono storie facili come quelle che
              B
Ti raccontavano da piccolo e tu credevi vere
              G
Come e' stato facile restare fermo immobile
              D                   /E* /F#*
Chiudendo gli occhi e rinunciando a vedere

            G
Sono storie facili come quelle che
              B
Ti raccontavano da piccolo e tu credevi vere
              G
Come e' stato facile restare fermo immobile
              D                   /E* /F#*
Chiudendo gli occhi e rinunciando a vedere


Break: (clean bass)

Bass: G en B
Ai-le-le-le-le... ora... ora-ha-a


Verse 3: (distortion)

   G             B             G             B
e:------------------------------------------------------------|
b:------------------------------------------------------------|
g:------------------------------------------------------------|
d:-5-5-5-5 ------9-9---9---9-9/5-5---5---5-5/9----------------|
a:-5-5-5-5 ------9-9---9---9-9/5-5---5---5-5/9-9h10-7h9-5h7---|
d:-5-5-5-5 ------9-9---9---9-9/5-5---5---5-5/9----------------|

   G             B             G             B
e:------------------------------------------------------------|
b:------------------------------------------------------------|
g:------------------------------------------------------------|
d:-5-5-5-5 ------9-9---9--[nc]-5-5---5---5-5/9----------------|
a:-5-5-5-5 ------9-9---9--[nc]-5-5---5---5-5/9-9h10-7h9-5h7---|
d:-5-5-5-5 ------9-9---9--[nc]-5-5---5---5-5/9----------------|

G   G  G   G              /B
Non e' piu tempo di credere
                                       /G
che tutto giri intorno alla solita marchetta radiofonica
               /B (loopje)
crisi di nervi discografica
G  G  G  G                                    /B
sciogliete i cani per capire cosa va di moda oggi
[nc}
...compra ragazzino compra 
          G
ho seguito i miei fantasmi ora fantasma sono
/B (loopje)
questo e' quel che hai perche' tu lo vuoi 


Bridge: (palmmuted)(distortion)

[pm] D           B
e:-----------------------------|
b:-----------------------------|
g:-7777777777777-4444444444444-|
d:-7777777777777-4444444444444-|
a:-5555555555555-2222222222222-|
d:-----------------------------| (2x)
            hai...     vuoi...

(release palmmute) (volle distortion)
   D              B
e:-------------------------------|
b:-------------------------------|
g:-77-77-77-77-77-44-44-44-44-44-|
d:-77-77-77-77-77-44-44-44-44-44-|
a:-55-55-55-55-55-22-22-22-22-22-|
d:-------------------------------|
     ha-aa-aai... vuo-o-ooiii...
   D              B
e:-------------------------------|
b:-------------------------------|
g:-77-77-77-77-77-44-44-44-44-44-|
d:-77-77-77-77-77-44-44-44-44-44-|
a:-55-55-55-55-55-22-22-22-22-22-|
d:-------------------------------|
       hai, hai,  vuoi,vuoi,vuoi 


   G             D   /E* /F#*
e:-----------------------------------|
b:-----------------------------------|
g:--------------7777-9-9-9-11-11-11--|
d:-5-5-5--5-5-5-7777-X-X-X-X--X--X---|
a:-5-5-5--5-5-5-5555-7-7-7-9--9--9---|
d:-5-5-5--5-5-5----------------------| (3x)


e:--------------------|
b:--------------------|
g:--------------------|
d:-5-5-5--5-5-5-/2~---|
a:-5-5-5--5-5-5-/2~---|
d:-5-5-5--5-5-5-/2~---|
                   G                         D     /E*  /F#*
Questo e' quel che hai perche' tu lo vuoi, ora... e dimmi se...
                   G                                 D      /E*  /F#*
Questo e' quel che hai perche' tu lo vuoi sono un fantasma dimmi se ci sei
                   G                         D   /E*  /F#*
Questo e' quel che hai perche' tu lo vuoi, ora... e dimmi se...
                   G                       E
Questo e' quel che hai perche' tu lo vuoi, ora...



Chorus: (distortion)

   G                B                G            D     /E*    /F#*
e:-------------------------------------------------------------------------|
b:-------------------------------------------------------------------------|
g:------------------------------------------------7777-9-9-9-9-11-11-11-11-|
d:-555-x-5-5555-555/999-x-9-9999-999555-x-5-5555-7777-X-X-X-X-X--X--X--X--|
a:-555-x-5-5555-555/999-x-9-9999-999555-x-5-5555-5555-7-7-7-7-9--9--9--9--|
d:-555-x-5-5555-555/999-x-9-9999-999555-x-5-5555--------------------------|(2x)

            G
Sono storie facili come quelle che
              B
Ti raccontavano da piccolo e tu credevi vere
              G
Come e' stato facile restare fermo immobile
              D                   /E* /F#*
Chiudendo gli occhi e rinunciando a vedere

            G
Sono storie facili come quelle che
              B
Ti raccontavano da piccolo e tu credevi vere
              G
Come e' stato facile restare fermo immobile
              D                   /E* /F#*
Chiudendo gli occhi e rinunciando a vedere


Outro: (chorus variatie)

   G                B                G            D [pm]
e:----------------------------------------------------------------|
b:----------------------------------------------------------------|
g:----------------------------------------------------------------|
d:-555-x-5-5555-----999-x-9-9999-----555-x-5-5555-00000000000000 -|
a:-555-x-5-5555-----999-x-9-9999-----555-x-5-5555-00000000000000 -|
d:-555-x-5-5555-----999-x-9-9999-----555-x-5-5555-00000000000000 -|

G                                    B
Facili come quelle che ti raccontavano da piccolo e tu credevi vere
                 G
Quanto e' stato facile restare fermo immobile
D (palmmute)
Chiudendo gli occhi e rinunciando a vedere 

_________________________________________________________________


Добавлено: 11.10.2013
Другие материалы по этой песне:

Страница создана 11.03.2012
http://primanota.ru/linea-77/fantasma-chords.htm
Привет, Гость.
Предлагаем пройти революционный курс по гитаре.
Подарок от PrimaNota.Ru, забирай!