PrimaNota.ru - самый крупный в мире бесплатный архив песенных текстов, аккордов, табулатур и нот


Linea 77 - 66 Diabulus In Musica - таба, видео

Регистрация Запомнить меня
Войти через:  Facebook Google Twitter Vk Yandex Mail.ru

Linea 77 - 66 Diabulus In Musica - таба, видео

Печатать
Просмотров: 99
Title     : 66 (diabulus in musica)
Artist    : Linea 77 ft. Subsonica
Album     : Numb
Capo      : none
Setting   : D-A-D-G-B-E
Tabbed by : T. Th. Smit
-------------------------------------------------

Ok, ik had de vorige niet helemaal goed gemaakt,
Hier zijn wat kleine aanpassingen, waaronder de tuning. 
ik zou echt willen zeggen; ga dit nummer luisteren, hij's echt goed!

Tim

Tuning; Dropped-D DADGBe

Bm: X-2-4-4-3-2
C:  X-3-5-5-5-3
Em: X-7-9-9-8-7


A5: 7-7-7-X-X-X
Bb5:8-8-8-X-X-X
B5: 9-9-9-X-X-X of X-2-4-4-X-X
C5: 10-10-10-X-X-X of X-3-5-5-X-X
E5: 2-2-2-X-X-X
F5: 3-3-3-X-X-X
G5: 5-5-5-X-X-X

[nc]: no chord

Intro: Tanto distortion

Em, Bm (2x)(de verses worden op de zelfde manier gespeeld.);

   Em              Bm               Em             Bm       C   Bm
e:-7-7-7-7-7-7-7-7/2-2-2-2-2-2-2-2/7-7-7-7-7-7-7-7/2-2-2-2/3-3/2-2-|
b:-8-8-8-8-8-8-8-8/3-3-3-3-3-3-3-3/8-8-8-8-8-8-8-8/3-3-3-3/5-5/3-3-|
g:-9-9-9-9-9-9-9-9/4-4-4-4-4-4-4-4/9-9-9-9-9-9-9-9/4-4-4-4/5-5/4-4-|
d:-9-9-9-9-9-9-9-9/4-4-4-4-4-4-4-4/9-9-9-9-9-9-9-9/4-4-4-4/5-5/4-4-|
a:-7-7-7-7-7-7-7-7/2-2-2-2-2-2-2-2/7-7-7-7-7-7-7-7-2-2-2-2/3-3/2-2-|
d:-----------------------------------------------------------------| 
                                                           Ancora!


Verse: Er meerdere rappers en zangers, dat maakt 't een beetje lastig...

   Em              Bm               Em             Bm       C   Bm
e:-7-7-7-7-7-7-7-7/2-2-2-2-2-2-2-2/7-7-7-7-7-7-7-7/2-2-2-2/3-3/2-2-|
b:-8-8-8-8-8-8-8-8/3-3-3-3-3-3-3-3/8-8-8-8-8-8-8-8/3-3-3-3/5-5/3-3-|
g:-9-9-9-9-9-9-9-9/4-4-4-4-4-4-4-4/9-9-9-9-9-9-9-9/4-4-4-4/5-5/4-4-|
d:-9-9-9-9-9-9-9-9/4-4-4-4-4-4-4-4/9-9-9-9-9-9-9-9/4-4-4-4/5-5/4-4-|
a:-7-7-7-7-7-7-7-7/2-2-2-2-2-2-2-2/7-7-7-7-7-7-7-7-2-2-2-2/3-3/2-2-|
d:-----------------------------------------------------------------|

Em                                 Bm
  (Sei!) l'affanno, il brivido, la perdita
(Bm)                            
(Del ritmo regolare del respiro)
Em                      Bm     C   Bm
Mi nascondo... dietro parole inutili
Em
Righe parallele che non si incontrano
Bm
  Destini quasi a perdersi
         Em
nell'infinito
Bm    C         Bm
  E non fermarti adesso!


Pré-Chorus:
   E5                  F5                  E5                  F5
e:-------------------|-------------------|-------------------|-------------------|
b:-------------------|-------------------|-------------------|-------------------|
g:-------------------|-------------------|-------------------|-------------------|
d:-2-0h2p0-2-2-0h2p0-|-3-0h3p0-3-3-0h3p0-|-2-0h2p0-2-2-0h2p0-|-3-0h3p0-3-3-0h3p0-|
a:-2-0h2p0-2-2-0h2p0-|-3-0h3p0-3-3-0h3p0-|-2-0h2p0-2-2-0h2p0-|-3-0h3p0-3-3-0h3p0-|
d:-2-0h2p0-2-2-0h2p0-|-3-0h3p0-3-3-0h3p0-|-2-0h2p0-2-2-0h2p0-|-3-0h3p0-3-3-0h3p0-|
 Libero...  (TU SEI!) Di essere...(...)   Niente piu' (...)   D'un numero..(...)

In accoorden:

E5
Libero (TU SE!)
F5
di essere (LIBERO DI ESSERE!)
E5
Niente più (NIENTE PIU'!)
F5
di un numero-o-o


Verse: zie boven

[nc]
Le conseguenze
Em                                             Bm
   Che mi aspettano nascoste dietro la luce soffusa
                         Em
della stanza mi assalgono comprimono il cervello
                           Bm          C   Bm    Em
stringono la presa e mi confondono non respiro più
                                               Bm
lo sguardo cade su un particolare ormai dimenticato
                                         Em
la testa gira ferma tutto voglio scendere
          Bm  C  Bm
da questa paranoia


Pré-Chorus: Distortion

   E5                  F5                  E5                  F5
e:-------------------|-------------------|-------------------|-------------------|
b:-------------------|-------------------|-------------------|-------------------|
g:-------------------|-------------------|-------------------|-------------------|
d:-2-0h2p0-2-2-0h2p0-|-3-0h3p0-3-3-0h3p0-|-2-0h2p0-2-2-0h2p0-|-3-0h3p0-3-3-0h3p0-|
a:-2-0h2p0-2-2-0h2p0-|-3-0h3p0-3-3-0h3p0-|-2-0h2p0-2-2-0h2p0-|-3-0h3p0-3-3-0h3p0-|
d:-2-0h2p0-2-2-0h2p0-|-3-0h3p0-3-3-0h3p0-|-2-0h2p0-2-2-0h2p0-|-3-0h3p0-3-3-0h3p0-|
 Libero...  (TU SEI!) Di essere...(...)   Niente piu' (...)   D'un numero..(...)


E5
Libero (tu sei)
F5
di essere (libero di essere)
E5
Niente più (niente più)
F5
di un numero


Chorus: distortion
(pm) E5               B
e:-------------------|------------------|------------------------|--------------|
b:-------------------|------------------|------------------------|--------------|
g:-------------------|------------------|------------------------|--------------|
d:-2-2---2--2-2---2-2/9-9---9--9-9---9-9/10-10---10--10-10--10-10/7-7-7---7-7-7-|
a:-2-2---2--2-2---2-2/9-9---9--9-9---9-9/10-10---10--10-10--10-10/7-7-7---7-7-7-|
d:-2-2---2--2-2---2-2/9-9---9--9-9---9-9/10-10---10--10-10--10-10/7-7-7---7-7-7-|
   
(palmmuted)
E5        
Sei! (quello che è stato)
B5                              C5
Sei! (il mio passato che non tornerà
                     A5
Tutto quello che! (desideravo avere tempo fa)


(Tanto distorion)Palmmute valt weg;

e:--------|-------|--------|---------|----|-------|--------|-------|-------|
b:--------|-------|--------|---------|----|-------|--------|-------|-------|
g:--------|-------|--------|---------|----|-------|--------|-------|-------|
d:-2~~~~~~/9~~~~~~/10~~~~~~/5-X-5-X-5-[nc]-2~~~~~~/10~~~~~~/5~~~~~~/7~~~~~~|
a:-2~~~~~~/9~~~~~~/10~~~~~~/5-X-5-X-5-[nc]-2~~~~~~/10~~~~~~/5~~~~~~/7~~~~~~|
d:-2~~~~~~/9~~~~~~/10~~~~~~/5-X-5-X-5-[nc]-2~~~~~~/10~~~~~~/5~~~~~~/7~~~~~~|

E5       B5
Sei! (quello che è stato)
C5                G5         [nc]   E5 
  Sei! (il mio passato che non   tornerà
      C5             G5              A5
Tutto quello che! (desideravo avere tempo fa)

E5       B5
Sei! (quello che è stato)
C5                G5         [nc]   E5 
  Sei! (il mio passato che non   tornerà
      C5             G5              A5
Tutto quello che! (desideravo avere tempo fa)


Il pezzo di solo: Non ne ho la più pallida idea...


Verse:

Em
Ora che non sei più solo
Bm
ora che cosa c'è
Em
l'incertezza di restare appeso ad un filo
    Bm                 C
con la paura di volare alto
Bm              Em
confondo nello spazio - vuoto
                      Bm
ridendo mi nascondo - cado

non c'è più spazio per l'indecisioni
Em
prendere o lasciare accettare
     Bm            C Bm
di cadere ancora - ancora!



Pré-Chorus: Distortion

E5
Libero (tu sei)
F5
di essere (libero di essere)
E5
Niente più (niente più)
F5
di un numero



Chorus:

(palmmuted)
E5
Sei! (quello che è stato)
B5                              C5
Sei! (il mio passato che non tornerà
                    A5
Tutto quello che! (desideravo avere tempo fa)

(Zware distorion)


E5       B5
Sei! (quello che è stato)
C5                G5         [nc]   E5 
  Sei! (il mio passato che non   tornerà
      C5             G5              A5
Tutto quello che! (desideravo avere tempo fa)

E5       B5
Sei! (quello che è stato)
C5                G5         [nc]   E5 
  Sei! (il mio passato che non   tornerà
      C5             G5              A5
Tutto quello che! (desideravo avere tempo fa)


Break:

e:-----------|-----------|---------------|---------------|
b:-----------|-----------|---------------|---------------|
g:-----------|-----------|---------------|---------------|
d:-----------|-----------|---------------|---------------|
a:-----------|-----------|---------------|---------------|
e:-2-2-2-2-8-|-2-2-2-2-8-|-/9-9-10-9-7-9-|-/9-9-10-9-7-9-| (2x)

          Tu!          Sei!                 libero di essere
e:------------|------------|---------------|---------------|
b:------------|------------|---------------|---------------|
g:------------|------------|---------------|---------------|
d:-2-2-2-2-8!-|-2-2-2-2-8!-|-/9-9-10-9-7-9-|-/9-9-10-9-7-9-|
a:-2-2-2-2-8!-|-2-2-2-2-8!-|-/9-9-10-9-7-9-|-/9-9-10-9-7-9-|
e:-2-2-2-2-8!-|-2-2-2-2-8!-|-/9-9-10-9-7-9-|-/9-9-10-9-7-9-| (4x)

Oppure:

E   Bb! E   Bb!  B      C  B  A  B   B      C  B  A  B!
    Tu!    Sei!                      libero di es-se-re!
Добавлено: 15.07.2012
Другие материалы по этой песне:
  • Аккорды и текст

Страница создана 15.07.2012
http://primanota.ru/linea-77/66-diabulus-in-musica-chords.htm
Привет, Гость.
Предлагаем пройти революционный курс по гитаре.
Подарок от PrimaNota.Ru, забирай!