PrimaNota.ru - самый крупный в мире бесплатный архив песенных текстов, аккордов, табулатур и нот


Lindsey Pool - Angel Pumping Gas - таба, видео

Регистрация Запомнить меня
Войти через:  Facebook Google Twitter Vk Yandex Mail.ru

Lindsey Pool - Angel Pumping Gas - таба, видео

Печатать
Просмотров: 95
-------------------------------------------------------------------------------
                Angel Pumping Gas - Lindsey Pool
-------------------------------------------------------------------------------
Tabbed by: Alan Bracewell
Email:  kadence@gmail.com
 
Tuning: Standard

Intro 
e|---------------------------------------------------------------------------|
B|---------------------------------------------------------------------------|
G|------6---8-----------------------11---------------------------------------|
D|--4---6---8---8---9--8--6--8--4---11---------------------------------------|
A|--4---4---6---8---9--8--6--8--4---9----------------------------------------|
E|--2-----------6---7--6--4--6--2--------------------------------------------|

Verse: Palm Mute then strum once before changing chords
e|---------------------------------------------------------------------------|
B|---------------------------------------------------------------------------|
G|------6---8----------------------------------------------------------------|
D|--4---6---8---8---9---8---9---11-------------------------------------------|
A|--4---4---6---8---9---8---9---11-------------------------------------------|
E|--2-----------6---7---6---7---10-------------------------------------------|

Chorus                                           "But I really need...
e|-------------------------------------------|-------------------------------|
B|-------------------------------------------|-------------------------------|
G|------6-------8-----------6---4------------|----4----3---------------------|
D|--4---6---6---8---6---6---6---4------x2----|----4----4---------------------|
A|--4---4---6---6---6---6---4---2------------|----2----2---------------------|
E|--2-------4-------4---4--------------------|-------------------------------|

Repeat Intro
Repeat Verse (no guitar First time)

Verse: 2nd guitar (1:30)
e|--6---6---7---7---9----9----7---7---14-----14-----13-----13----------------|
B|---7---7---7---7---9----9----7---7----14-----14-----14-----14--------------|
G|----6---6---6---6---10--10----8---8-----15----15------15-----15------------|
D|---------------------------------------------------------------------------|
A|---------------------------------------------------------------------------|
E|---------------------------------------------------------------------------|

Repeat Chorus
Repeat Intro

Bridge (the F chord is only played once between Intro and bridge)
e|-----|----------------------------------------------------------------------|
B|-----|----------------------------------------------------------------------|
G|--10-|--8----7----4---6-----------------------------------------------------|
D|--10-|--8----7----4---6----x2-----------------------------------------------|
A|--8--|--6----5----2---4-----------------------------------------------------|
E|-----|----------------------------------------------------------------------|

Repeat Verse

Chorus Sung Acapella!

*NOTE* This song is not by The Postal Service! Someone put this song on kazaa
titled as a Postal Service song probably because the cd is called "Postal".
Lindsey Pool's website is at http://www.lindseypool.com/ which includes numerous 
song downloads.  Another guy tabbed this song under the Postal Service name, he
also tabbed the intro's lead guitar, so check that out if you want.  Anyways, I 
tabbed this because I felt Lindsey Pool deserved the proper credit for a great
song. Any corrections just e-mail me.
===============================================================================
Добавлено: 03.06.2012
Другие материалы по этой песне:
  • Аккорды и текст

Страница создана 03.06.2012
http://primanota.ru/lindsey-pool/angel-pumping-gas-chords.htm
Привет, Гость.
Предлагаем пройти революционный курс по гитаре.
Подарок от PrimaNota.Ru, забирай!