PrimaNota.ru - самый крупный в мире бесплатный архив песенных текстов, аккордов, табулатур и нот


Lindsey Buckingham - Time Precious Time - таба, видео

Регистрация Запомнить меня
Войти через:  Facebook Google Twitter Vk Yandex Mail.ru

Lindsey Buckingham - Time Precious Time - таба, видео

Печатать
Просмотров: 44
-------------------------------------------------------------------------------
                             Lindsey Buckingham - Time Precious Time
-------------------------------------------------------------------------------

Tuning: C G E G A B

tabbed according to the following video: 
www.youtube.com/watch?v=HCGKFY9NBZY
(Fleetwood Mac's Lindsey Buckingham Guitar Lesson)


    part 1 *)                      part 2 **)

B|--1--3--5--8--10--13--15--17--|--17--15--12--10--8--5--3--0--|
A|--0--3--5--7--10--12--15--17--|--17--14--12--10--7--5--2--0--|
G|--0--2--5--7---9--12--14--17--|--16--14--12---9--7--4--2--0--|
E|--0--3--5--8--10--12--15--17--|--17--15--12--10--7--5--3--0--|
G|------------------------------|---0---0---0---0--0--0--0--0--|
C|--0--0--0--0---0---0---0---0--|------------------------------|


play each of these shapes as follows:

*) part 1: 

    p i m a m i  p i m a m i
B|--------x------------x------|
A|------x---x--------x---x----|
G|----x-------x----x-------x--|
E|---------------x------------|
G|----------------------------|
C|--x-------------------------|


**) part 2:
        
    p i m a m i  p i m a m i
B|--------x------------x------|
A|------x---x--------x---x----|
G|----x-------x----x-------x--|
E|---------------x------------|
G|--x-------------------------|
C|----------------------------|


************************************
Добавлено: 19.11.2015
Вам также может быть интересно:
Другие материалы по этой песне:
  • Аккорды и текст

Страница создана 19.11.2015
http://primanota.ru/lindsey-buckingham/time-precious-time-chords.htm
Привет, Гость.
Предлагаем пройти революционный курс по гитаре.
Подарок от PrimaNota.Ru, забирай!