PrimaNota.ru - самый крупный в мире бесплатный архив песенных текстов, аккордов, табулатур и нот


Lindsey Buckingham - Never Going Back - таба, видео

Регистрация Запомнить меня
Войти через:  Facebook Google Twitter Vk Yandex Mail.ru

Lindsey Buckingham - Never Going Back - таба, видео

Печатать
Просмотров: 257
Уроки эстрадного вокала в Санкт-Петербурге
                        Never Going Back Again 

                        Lindsey Buckingham 

As performed by Lindsey Buckingham and Stevie Nicks on a "Soundstage"
performance recorded and broadcast on PBS.

Performance on http://www.youtube.com/watch?v=pVTG3gxdF_E

This version is in a lower key (Drop D tuning capoed on 3rd fret)
than all the other tabs I've seen, and has a nice solo interlude. 
I find it easier to play than the others.  

This is my first tab, so please be gentle with critiques :-)  
Also posting this as a Guitar-Pro file.

ciseg8r@yahoo.com                         


                                                                  
Drop D (D-A-D-G-B-E) (Capo 3)


Intro: Instrumental only

      E  E  E  S  S E  S S S S S S    E  S  S E  E   E  S S S S E   
E||--------------------5-----5-----|--------------------5-----5----|
B||------3-----2h-3------3-----3---|-----3p-2----2h--3----3-----3--|
G||*-----2-----2-----------2-----2-|-----2-------2h---------2------|
D||*-----4-----2h-4----4-------4---|-----4p-2----2h--4--4-----4----|
A||---------0--------------0-------|----------0-------------0------|
D||---0-------------0--------------|--0--------------0-------------|


  S S S S S S S S S S S S S S S S    S S S S  E  E  S S S S S S E     
--2-----2-----2-----2-----2-----2-|---------------------5-----------||
----5-----5-----5-----5-----5-----|--3-----5S-7--5--3-----------3---||
------2-----2-----2-----2-----2---|----2--------------------2------*||
----------------------------------|------4-5S-7--5--4-4-------4----*||
--0-------0-------0-------0-------|-----------0-----------0---------||
----------------------------------|--0--------------0---------------||


Verse 1

   E  E  E  S  S E  S S S S S S    E  S  S E  E   E  S S S S E   
--------------------5-----5-----|--------------------5-----5----|
------3-----2h-3------3-----3---|-----3p-2----2h--3----3-----3--|
*-----2-----2-----------2-----2-|-----2-------2h---------2------|
*-----4-----2h-4----4-------4---|-----4p-2----2h--4--4-----4----|
---------0--------------0-------|----------0-------------0------|
---0-------------0--------------|--0--------------0-------------|


  S S S S S S S S S S S S S S S S    S S S S  E  E  S S S S S S E     
--2-----2-----2-----2-----2-----2-|---------------------5-----------||
----5-----5-----5-----5-----5-----|--3-----5S-7--5--3-----------3---||
------2-----2-----2-----2-----2---|----2--------------------2------*||
----------------------------------|------4-5S-7--5--4-4-------4----*||
--0-------0-------0-------0-------|-----------0-----------0---------||
----------------------------------|--0--------------0---------------||


Chorus

  E   E  E  E   S  S S  S  S S  S  S    E   E  S S S S  S  S S  S  S S  S  S  
-----10-----9--10------10------10----|-----10--9-------10------10------10----|
------------------10------10------10-|-----------8---8----10------10------10-|
---------------------7-------7-------|--7--------------------7-------7-------|
------7-----7------------------------|------7------7-------------------------|
---------0-----------------0---------|---------0-------------------0---------|
--0-------------0--------------------|--0---------------0--------------------|


  E   E  E  E   S  S S  S  S S  S  S    E  E  S S S S E  S S E  S  S  
-----10-----9--10------10------10----|---------------------5-L-------|
------------------10------10------10-|-----3----2-----3---------2h-3-|
---------------------7-------7-------|-----2----2---0-2--------------|
------7-----7------------------------|-----4------2------2------2h-4-|
---------0-----------------0---------|--2-----0-------2------0-------|
--0-------------0--------------------|-------------------------------|


  E  E  E  S  S E  S S S S S S    E  S  S E  E   E  S S S S E   
-------------------5-----5-----|--------------------5-----5----|
-----3-----2h-3------3-----3---|-----3p-2----2h--3----3-----3--|
-----2-----2-----------2-----2-|-----2-------2h---------2------|
-----4-----2h-4----4-------4---|-----4p-2----2h--4--4-----4----|
--------0--------------0-------|----------0-------------0------|
--0-------------0--------------|--0--------------0-------------|


  S S S S S S S S S S S S S S S S    S S S S  E  E  E  E  Q     
--2-----2-----2-----2-----2-----2-|----------------------------|
----5-----5-----5-----5-----5-----|--3-----5S-7--5--3-----3----|
------2-----2-----2-----2-----2---|----2------------------2----|
----------------------------------|------4-5S-7--5--4-----4----|
--0-------0-------0-------0-------|-----------0--------0-------|
----------------------------------|--0--------------0----------|


Solo Interlude

   E  E  E  E  E  E  E  E     E  S S  E  E  Q    S  S S S  
---------------------------|------------------------------|
--10-----------8-----------|--7----7s-5--3--------------3-|
---------------------------|----------------2---------2---|
------------0-----------0--|---------------------0s-4-----|
---------0-----------0-----|-----0------------------------|
---0--0--------0--0--------|--0-------------0-------------|


  S S S E  S E  S S S E  S  E     E.  S  E  E  H         
-------------------------------|------------------------|
--2-----2----3--0-----0--0h-2--|--3---3p-2--2--3--------|
----0-------------0------------|--2------------2--------|
------2-------------0----0h-2--|--4---4p-2--2--4--------|
--0--------0-------------------|------------------------|
----------------5--------------|--0------------0--------|


   E  E  S  S   E  E  E  S S   E     E  S S  E  E  Q    S  S S S  
----------------------------------|------------------------------|
--10-------10s-12--8-------8S-10--|--7----7s-5--3--------------3-|
----------------------------------|----------------2---------2---|
---------0---------------0--------|---------------------0s-4-----|
------0---------------0-----------|-----0------------------------|
---0---------------0--------------|--0-------------0-------------|


  S S S E  S E  S S S E  S  E     E.  S  E  E  E  S S S E.   
-------------------------------|----------------------------|
--2-----2----3--0-----0--0h-2--|--3---3p-2--2--3----3-------|
----0-------------0------------|--2------------2--------2---|
------2-------------0----0h-2--|--4---4p-2--2--4------4-----|
--0--------0-------------------|------------------0---------|
----------------5--------------|--0------------0------------|


  E   E  E  E   S  S S  S  S S  S  S    E   E  S S S S  S  S S  S  S S  S  S  
-----10-----9--10------10------10----|-----10--9-------10------10------10----|
------------------10------10------10-|-----------8---8----10------10------10-|
---------------------7-------7-------|--7--------------------7-------7-------|
------7-----7------------------------|------7------7-------------------------|
---------0-----------------0---------|---------0-------------------0---------|
--0-------------0--------------------|--0---------------0--------------------|


  E   E  E  E   S  S S  S  S S  S  S    E  E  S S S S E  S S E  S  S  
-----10-----9--10------10------10----|---------------------5-L-------|
------------------10------10------10-|-----3----2-----3---------2h-3-|
---------------------7-------7-------|-----2----2---0-2--------------|
------7-----7------------------------|-----4------2------2------2h-4-|
---------0-----------------0---------|--2-----0-------2------0-------|
--0-------------0--------------------|-------------------------------|


    E  E  E  S  S E  S S S S S S    E  S  S E  E   E  S S S S E   
|--------------------5-----5-----|--------------------5-----5----|
|------3-----2h-3------3-----3---|-----3p-2----2h--3----3-----3--|
|*-----2-----2-----------2-----2-|-----2-------2h---------2------|
|*-----4-----2h-4----4-------4---|-----4p-2----2h--4--4-----4----|
|---------0--------------0-------|----------0-------------0------|
|---0-------------0--------------|--0--------------0-------------|


  S S S S S S S S S S S S S S S S    S S S S  E  E  S S S S S S E     
--2-----2-----2-----2-----2-----2-|---------------------5-----------||
----5-----5-----5-----5-----5-----|--3-----5S-7--5--3-----------3---||
------2-----2-----2-----2-----2---|----2--------------------2------*||
----------------------------------|------4-5S-7--5--4-4-------4----*||
--0-------0-------0-------0-------|-----------0-----------0---------||
----------------------------------|--0--------------0---------------||


Verse 2

  E   E  E  E   S  S S  S  S S  S  S    E   E  S S S S  S  S S  S  S S  S  S  
-----10-----9--10------10------10----|-----10--9-------10------10------10----|
------------------10------10------10-|-----------8---8----10------10------10-|
---------------------7-------7-------|--7--------------------7-------7-------|
------7-----7------------------------|------7------7-------------------------|
---------0-----------------0---------|---------0-------------------0---------|
--0-------------0--------------------|--0---------------0--------------------|


  E   E  E  E   S  S S  S  S S  S  S    E  E  S S S S E  S S E  S  S  
-----10-----9--10------10------10----|---------------------5-L-------|
------------------10------10------10-|-----3----2-----3---------2h-3-|
---------------------7-------7-------|-----2----2---0-2--------------|
------7-----7------------------------|-----4------2------2------2h-4-|
---------0-----------------0---------|--2-----0-------2------0-------|
--0-------------0--------------------|-------------------------------|


  E  E  E  S  S E  S S S S S S    E  S  S E  E   E  S S S S E   
-------------------5-----5-----|--------------------5-----5----|
-----3-----2h-3------3-----3---|-----3p-2----2h--3----3-----3--|
-----2-----2-----------2-----2-|-----2-------2h---------2------|
-----4-----2h-4----4-------4---|-----4p-2----2h--4--4-----4----|
--------0--------------0-------|----------0-------------0------|
--0-------------0--------------|--0--------------0-------------|


  S S S S S S S S S S S S S S S S    S S S S  E  E  S S S S S S E   
--2-----2-----2-----2-----2-----2-|---------------------5----------|
----5-----5-----5-----5-----5-----|--3-----5S-7--5--3-----------3--|
------2-----2-----2-----2-----2---|----2--------------------2------|
----------------------------------|------4-5S-7--5--4-4-------4----|
--0-------0-------0-------0-------|-----------0-----------0--------|
----------------------------------|--0--------------0--------------|


Chorus (on this round of the chorus add a measure and sing 
"Been down three times" over the extra measure) 

  E   E  E  E   S  S S  S  S S  S  S    E   E  S S S S  S  S S  S  S S  S  S  
-----10-----9--10------10------10----|-----10--9-------10------10------10----|
------------------10------10------10-|-----------8---8----10------10------10-|
---------------------7-------7-------|--7--------------------7-------7-------|
------7-----7------------------------|------7------7-------------------------|
---------0-----------------0---------|---------0-------------------0---------|
--0-------------0--------------------|--0---------------0--------------------|


  E   E  E  E   S  S S  S  S S  S  S    E   E  S S S S  S  S S  S  S S  S  S  
-----10-----9--10------10------10----|-----10--9-------10------10------10----|
------------------10------10------10-|-----------8---8----10------10------10-|
---------------------7-------7-------|--7--------------------7-------7-------|
------7-----7------------------------|------7------7-------------------------|
---------0-----------------0---------|---------0-------------------0---------|
--0-------------0--------------------|--0---------------0--------------------|


  E  E  S S S S E  S S E  S  S    E  E  E  S  S E  S S S S S S  
---------------------5-L-------|-------------------5-----5-----|
-----3----2-----3---------2h-3-|-----3-----2h-3------3-----3---|
-----2----2---0-2--------------|-----2-----2-----------2-----2-|
-----4------2------2------2h-4-|-----4-----2h-4----4-------4---|
--2-----0-------2------0-------|--------0--------------0-------|
-------------------------------|--0-------------0--------------|


  E  S  S E  E   E  S S S S E     S S S S S S S S S S S S S S S S  
--------------------5-----5----|--2-----2-----2-----2-----2-----2-|
-----3p-2----2h--3----3-----3--|----5-----5-----5-----5-----5-----|
-----2-------2h---------2------|------2-----2-----2-----2-----2---|
-----4p-2----2h--4--4-----4----|----------------------------------|
----------0-------------0------|--0-------0-------0-------0-------|
--0--------------0-------------|----------------------------------|


                 ^          
  S S S S  E  E  H          
--------------------------||
--3-----5S-7--5--3--------||
----2------------2--------||
------4-5S-7--5--4--------||
-----------0-----0--------||
--0--------------0--------||




Duration Legend
---------------
W - whole
H - half
Q - quarter
E - 8th
S - 16th
T - 32nd
X - 64th
. - note dotted
|-n-|  - n-tuplets


Tablature Legend
----------------
L - tied note
x - dead note
g - grace note
(n) - ghost note
> - accentuded note
NH - natural harmonic
AH - artificial harmonic
TH - tapped harmonic
SH - semi harmonic
PH - pitch harmonic
h - hammer on
p - pull off
b - bend
br - bendRelease
pb - preBend
pbr - preBendRelease
brb - bendReleaseBend
\n/ - tremolo bar dip
\n - tremolo bar dive
-/n - tremolo bar Release up
/n\ - tremolo bar inverted dip
/n - tremolo bar return
-\n - tremolo bar Release down
S - shift slide
s - legato slide
/ -  slide into from below or out of upwards
\ -  slide into from above or out of downwards
~ - vibrato
W - wide vibrato
tr - trill
TP - tremolo picking
T - tapping
S - slap
P - pop
< - fade in
^ - brush up
v - brush down
Добавлено: 28.06.2012
Другие материалы по этой песне:
  • Аккорды и текст

Страница создана 28.06.2012
http://primanota.ru/lindsey-buckingham/never-going-back-chords.htm
Привет, Гость.
Предлагаем пройти революционный курс по гитаре.
Подарок от PrimaNota.Ru, забирай!