PrimaNota.ru - самый крупный в мире бесплатный архив песенных текстов, аккордов, табулатур и нот


Lindsey Buckingham - Never Going Back Again - таба, видео

Регистрация Запомнить меня
Войти через:  Facebook Google Twitter Vk Yandex Mail.ru

Lindsey Buckingham - Never Going Back Again - таба, видео

Печатать
Просмотров: 69
Авторы музыки: Lindsey Buckingham
Авторы текста: Lindsey Buckingham
Never Going Back Again (Live Version)
Lindsey Buckingham
TablEdited by Anthony Walker


I looked on the web for this version, but couldn't find it.
And I saw some requests for it,so here it is.
This is the version he plays at Fleetwood Mac concerts.
I tabbed this from a Lindsey Buckingham concert I saw on PBS.
The tuning on this song is like Dropped D, but at a lower key.
Once you tune to dropped D, tune each string down 4 more notes.

Tuning : A# F A# D# G C 	Time Signature: 4/4

 |       |       |       |        |       |       |       |        
|--------------------------------|--------------------------------|
|--------3---------------2h--3---|--------3-------------------3---|
|--------------------2-----------|------------------------2-------|
|--------4---------------2h--4---|--------4-----------4-----------|
|----------------0---------------|----------------0---------------|
|0-------------------------------|0-------------------------------|

 |       |       |       |        |       |       |       |        
|--------------------------------|--------------------------------|
|--------3---------------2h--3---|--------3-----------------------|
|--------------------------------|--------------------2-----------|
|--------4---------------2h--4---|--------4---------------4/--5---|
|----------------0---------------|----------------0---------------|
|0-------------------------------|0-------------------------------|

 |       |       |       |        |       |       |       |        
|2-----------2-----------2-------|----2-----------2-----------2---|
|----5-----------5-----------5---|--------5-----------5-----------|
|--------------------2-----------|------------2-------------------|
|--------5---------------5-------|--------5---------------5-------|
|0---------------0---------------|0---------------0---------------|
|--------------------------------|--------------------------------|

 |       |       |       |        |       |       |       |        
|--------------------------------|--------------------------------|
|3-----------5/--7-------5-------|3-----------3-------------------|
|--------------------------------|----2---------------------------|
|--------4---5/--7-------5-------|--------4---------------4-------|
|----------------0---------------|----------------0---------------|
|0-------------------------------|0-------------------------------|

 |       |       |       |        |       |       |       |        
|--------10----------9-----------|10----------10----------10------|
|--------------------------------|----10----------10----------10--|
|----------------------------7---|--------7-----------7-----------|
|--------7---------------7-------|--------7---------------7-------|
|----------------0---------------|----------------0---------------|
|0-------------------------------|0-------------------------------|

 |       |       |       |        |       |       |       |        
|--------10------9---------------|10----------10----------10------|
|--------------------8-----------|----10----------10----------10--|
|----------------------------7---|--------7-----------7-----------|
|--------7---------------7-------|--------7---------------7-------|
|----------------0---------------|----------------0---------------|
|0-------------------------------|0-------------------------------|

 |       |       |       |        |       |       |       |        
|--------10----------9-----------|10----------10----------10------|
|--------------------------------|----10----------10----------10--|
|----------------------------7---|--------7-----------7-----------|
|--------7---------------7-------|--------7---------------7-------|
|----------------0---------------|----------------0---------------|
|0-------------------------------|0-------------------------------|

 |       |       |       |        |       |       |       |        
|--------------------------------|--------------------------------|
|--------3-----------2-----------|--------3---------------2h--3---|
|----------------------------2---|--------------------2-----------|
|--------4---------------4-------|--------4---------------2h--4---|
|2-------------------------------|2-------------------------------|
|----------------4---------------|----------------4---------------|

 |       |       |       |        |       |       |       |        
|--------------------------------|--------------------------------|
|--------3---------------2h--3---|--------3-------------------3---|
|--------------------2-----------|------------------------2-------|
|--------4---------------2h--4---|--------4-----------4-----------|
|----------------0---------------|----------------0---------------|
|0-------------------------------|0-------------------------------|

 |       |       |       |        |       |       |       |        
|--------------------------------|--------------------------------|
|--------3---------------2h--3---|--------3-----------------------|
|--------------------2-----------|--------------------2-----------|
|--------4---------------2h--4---|--------4---------------4/--5---|
|----------------0---------------|----------------0---------------|
|0-------------------------------|0-------------------------------|

 |       |       |       |        |       |       |       |        
|2-----------2-----------2-------|----2-----------2-----------2---|
|----5-----------5-----------5---|--------5-----------5-----------|
|--------------------2-----------|------------2-------------------|
|--------5---------------5-------|--------5---------------5-------|
|0---------------0---------------|0---------------0---------------|
|--------------------------------|--------------------------------|

 |       |       |       |        |       |       |       |        
|--------------------------------|--------------------------------|
|3-----------5/--7-------5-------|3-----------3-------------------|
|--------------------------------|----2---------------------------|
|--------4---5/--7-------5-------|--------4---------------4-------|
|----------------0---------------|----------------0---------------|
|0-------------------------------|0-------------------------------|

 |       |       |       |        |       |       |       |        
|--------------------------------|--------------------------------|
|10------------------------------|8-------------------------------|
|--------------------------------|--------------------------------|
|--------0---------------0-------|--------0---------------0-------|
|--------------------------------|--------------------------------|
|0---------------0---------------|0---------------0---------------|

 |       |       |       |        |       |       |       |        
|------------0-------------------|--------------------------------|
|7-----------------------3-------|------------------------3---2---|
|--------------------------------|2-------------------2-----------|
|--------0---------------0-------|--------0---1/--4---------------|
|--------------------------------|--------------------------------|
|0---------------0---------------|0-------------------------------|

 |       |       |       |        |       |       |       |        
|--------------------------------|--------------------------------|
|------------2-----------3-------|0-----------0-----------2-------|
|----2---------------2-------0---|----0---------------0-----------|
|--------2---------------0-------|--------2---------------2-------|
|0---------------0---------------|0---------------0---------------|
|--------------------------------|--------------------------------|

 |       |       |       |        |       |       |       |        
|--------------------------------|--------------------------------|
|3-----------2-----------2-------|3-----------3-------------------|
|----2---------------------------|----2---------------------------|
|--------4---------------2-------|--------4---------------4-------|
|----------------0---------------|----------------0---------------|
|0-------------------------------|0-------------------------------|

 |       |       |       |        |       |       |       |        
|--------------------------------|--------------------------------|
|10------------------10/-12------|8-------------------8/--10------|
|--------------------------------|--------------------------------|
|--------0---------------0-------|--------0---------------0-------|
|--------------------------------|--------------------------------|
|0---------------0---------------|0---------------0---------------|

 |       |       |       |        |       |       |       |        
|------------0-------------------|--------------------------------|
|7-----------------------3-------|------------------------3---2---|
|--------------------------------|2-------------------2-----------|
|--------0---------------0-------|--------0---1/--4---------------|
|--------------------------------|--------------------------------|
|0---------------0---------------|0-------------------------------|

 |       |       |       |        |       |       |       |        
|--------------------------------|--------------------------------|
|------------2-----------3-------|0-----------0-----------2-------|
|----2---------------2-------0---|----0---------------0-----------|
|--------2---------------0-------|--------2---------------2-------|
|0---------------0---------------|0---------------0---------------|
|--------------------------------|--------------------------------|

 |       |       |       |        |       |       |       |        
|--------------------------------|--------------------------------|
|3-----------2-----------2-------|3-----------3-------------------|
|----2---------------------------|----2---------------------------|
|--------4---------------2-------|--------4---------------4-------|
|----------------0---------------|----------------0---------------|
|0-------------------------------|0-------------------------------|

 |       |       |       |        |       |       |       |        
|--------10----------9-----------|10----------10----------10------|
|--------------------------------|----10----------10----------10--|
|----------------------------7---|--------7-----------7-----------|
|--------7---------------7-------|--------7---------------7-------|
|----------------0---------------|----------------0---------------|
|0-------------------------------|0-------------------------------|

 |       |       |       |        |       |       |       |        
|--------10------9---------------|10----------10----------10------|
|--------------------8-----------|----10----------10----------10--|
|----------------------------7---|--------7-----------7-----------|
|--------7---------------7-------|--------7---------------7-------|
|----------------0---------------|----------------0---------------|
|0-------------------------------|0-------------------------------|

 |       |       |       |        |       |       |       |        
|--------10----------9-----------|10----------10----------10------|
|--------------------------------|----10----------10----------10--|
|----------------------------7---|--------7-----------7-----------|
|--------7---------------7-------|--------7---------------7-------|
|----------------0---------------|----------------0---------------|
|0-------------------------------|0-------------------------------|

 |       |       |       |        |       |       |       |        
|--------------------------------|--------------------------------|
|--------3-----------2-----------|--------3---------------2h--3---|
|----------------------------2---|--------------------2-----------|
|--------4---------------4-------|--------4---------------2h--4---|
|2-------------------------------|2-------------------------------|
|----------------4---------------|----------------4---------------|

 |       |       |       |        |       |       |       |        
|--------------------------------|--------------------------------|
|--------3---------------2h--3---|--------3-------------------3---|
|--------------------2-----------|------------------------2-------|
|--------4---------------2h--4---|--------4-----------4-----------|
|----------------0---------------|----------------0---------------|
|0-------------------------------|0-------------------------------|

 |       |       |       |        |       |       |       |        
|--------------------------------|--------------------------------|
|--------3---------------2h--3---|--------3-----------------------|
|--------------------2-----------|--------------------2-----------|
|--------4---------------2h--4---|--------4---------------4/--5---|
|----------------0---------------|----------------0---------------|
|0-------------------------------|0-------------------------------|

 |       |       |       |        |       |       |       |        
|2-----------2-----------2-------|----2-----------2-----------2---|
|----5-----------5-----------5---|--------5-----------5-----------|
|--------------------2-----------|------------2-------------------|
|--------5---------------5-------|--------5---------------5-------|
|0---------------0---------------|0---------------0---------------|
|--------------------------------|--------------------------------|

 |       |       |       |        |       |       |       |        
|--------------------------------|--------------------------------|
|3-----------5/--7-------5-------|3-----------3-------------------|
|--------------------------------|----2---------------------------|
|--------4---5/--7-------5-------|--------4---------------4-------|
|----------------0---------------|----------------0---------------|
|0-------------------------------|0-------------------------------|

 |       |       |       |        |       |       |       |        
|--------------------------------|--------------------------------|
|3-----------5/--7-------5-------|3-------2-----------3-----------|
|--------------------------------|--------------------2-----------|
|--------4---5/--7-------5-------|4-------2-----------4-----------|
|----------------0---------------|--------------------0-----------|
|0-------------------------------|--------------------------------|


Created with TablEdit http://www.tabledit.com/
     
Добавлено: 02.09.2013
Другие материалы по этой песне:

Страница создана 07.07.2012
http://primanota.ru/lindsey-buckingham/never-going-back-again-chords.htm
Привет, Гость.
Предлагаем пройти революционный курс по гитаре.
Подарок от PrimaNota.Ru, забирай!