PrimaNota.ru - самый крупный в мире бесплатный архив песенных текстов, аккордов, табулатур и нот


Lindell Cooley - Your Mercy Goes Much Deeper - аккорды и текст, видео

Регистрация Запомнить меня
Войти через:  Facebook Google Twitter Vk Yandex Mail.ru

Lindell Cooley - Your Mercy Goes Much Deeper - аккорды и текст, видео

Печатать
Просмотров: 126
Your Mercy Goes Much Deeper
Lindell Cooley
-----------------------------------------------------------------------------
                                          Artist - Lindell Cooley
                                         *************************
                                    Song - Your Mercy Goes Much Deeper 
                                   ************************************
                                         Album - Open Up The Sky 
                                        *************************
                                           Tabbed By - Ayreon77
                                          **********************
-----------------------------------------------------------------------------
Tuning = Standard

INTRO
******
Cm Ab Eb Bb X2

VOLUME GUITAR 
Vol = *
   
e|-------------------------|---------------------|
B|-*---h--s-------s--p-----|-*---h--s---11---s---|
G|-8--8-10\12---12\10-8-10-|-8--8-10\12----12\10-|
D|-------------------------|---------------------|
A|-------------------------|---------------------|
E|-------------------------|---------------------|


--------------------------------------
CHORUS
*******
     Eb
Your mercy goes much deeper
     Ab
Your grace it rescues me
     Eb
Your mercy goes much deeper
    Cm           Dm    Eb
And farther than I can see

--------------------------------------
CHORUS
*******
     Eb
Your mercy goes much deeper
     Ab
Your grace it rescues me
     Eb
Your mercy goes much deeper
    Cm           Dm    Eb
And farther than I can see

--------------------------------------
BRIDGE 1
*********
  Ab        Cm  Fm       G     Ab
I reach for You when I'm going under
           Cm  Fm    G         Ab   Bb
I wait for You Jesus You're my life-line

--------------------------------------
CHORUS
*******
     Eb
Your mercy goes much deeper
     Ab
Your grace it rescues me
     Eb
Your mercy goes much deeper
    Cm           Dm    Eb
And farther than I can see

--------------------------------------
CHORUS
*******
     Eb
Your mercy goes much deeper
     Ab
Your grace it rescues me
     Eb
Your mercy goes much deeper
    Cm           Dm    Eb
And farther than I can see

--------------------------------------
BRIDGE 2
*********
              Cm
Where could I go
Ab              Eb    Bb
  Where would I stand 
            Cm        Ab         Bb
How could I leave the shelter of Your hand
              Cm
Where could I go
Ab              Eb    Bb
  Where would I stand
            Cm        Fm         G
How could I leave the shelter of Your hand

--------------------------------------
02:40
SOLO
*****
e|-------|------8--b-----------|----------------------|----------------|----------------------|
B|-------|--b-8---11-~~~~~~~~~-|--brp---b-11--rbp-----|---br-----------|-----------------b----|
G|-------|-10------------------|-10--8-10----10--8-10-|-8-7----s-------|-----------8-10-10-10-|
D|-------|---------------------|----------------------|-----8-8\10-----|--s---8-10------------|
A|--s--s-|---------------------|----------------------|------------8-6-|-6\10-----------------|
E|-0\15\-|---------------------|----------------------|----------------|----------------------|
                                           hold  hold       hold  hold
                                           bend  bend       bend  bend
                                         b  |  b  |   p   b  |  b  |   p   b  b  brp    brb
e|--------8-10---11---10-|-10---11---10-10-10-10-10-10-8-10-10-10-10-10-8-11-13-13--11-13--|
B|----b-8------8----8----|----8----8-------------------------------------------------------|
G|-8-10------------------|-----------------------------------------------------------------|
D|-----------------------|-----------------------------------------------------------------|
A|-----------------------|-----------------------------------------------------------------|
E|-----------------------|-----------------------------------------------------------------|


e|--b-15-18--b-15-20-|--b-15-18--b-15-20-|--b-15-18--b-15-20-|--b-15-18-|--b-15-18--b--b-rp----b-----s-|
B|-18-------18-------|-18-------18-------|-18-------18-------|-18-------|-18-------18-18---16-18-~~~~\-|
G|-------------------|-------------------|-------------------|----------|------------------------------|
D|-------------------|-------------------|-------------------|----------|------------------------------|
A|-------------------|-------------------|-------------------|----------|------------------------------|
E|-------------------|-------------------|-------------------|----------|------------------------------|


--------------------------------------
BRIDGE 2
*********
              Cm
Where could I go
Ab              Eb    Bb
  Where would I stand 
            Cm        Ab         Bb
How could I leave the shelter of Your hand
              Cm
Where could I go
Ab              Eb    Bb
  Where would I stand
            Cm        Fm              G
How could I leave the shelter of Your hand

--------------------------------------
CHORUS
*******
     Eb
Your mercy goes much deeper
     Ab
Your grace it rescues me
     Eb
Your mercy goes much deeper
    Cm           Dm    Eb
And farther than I can see

--------------------------------------
CHORUS
*******
     Eb
Your mercy goes much deeper
     Ab
Your grace it rescues me
     Eb
Your mercy goes much deeper
    Cm           Dm    Eb
And farther than I can see
Cm           Dm    Eb
Farther than I can see
     Cm           Dm    Eb
Much farther than I can see.



ENJOY.......
Добавлено: 08.08.2015
Вам также может быть интересно:
Другие материалы по этой песне:
  • Аккорды и текст

Страница создана 08.08.2015
http://primanota.ru/lindell-cooley/your-mercy-goes-much-deeper-chords.htm
Привет, Гость.
Предлагаем пройти революционный курс по гитаре.
Подарок от PrimaNota.Ru, забирай!