PrimaNota.ru - самый крупный в мире бесплатный архив песенных текстов, аккордов, табулатур и нот


Linda Perhacs - Chimacum Rain - таба, видео

Регистрация Запомнить меня
Войти через:  Facebook Google Twitter Vk Yandex Mail.ru

Linda Perhacs - Chimacum Rain - таба, видео

Печатать
Просмотров: 70
-------------------------------------------------------------------------------
                             CHIMACUM RAIN - Linda Perhacs
-------------------------------------------------------------------------------
Tabbed by: markiiitu
E-mail: marcolucio27@gmail.com

Tuning: Standard

e|------0-----------0--------|
B|----1---1---1---1---1------|
G|----------0---0-------0----|
D|------------------------2--|
A|--3------------------------|
E|---------------------------| [x2]

************************************

| /   slide up
| \   slide down
| h   hammer-on
| p   pull-off
| ~   vibrato
| +   harmonic
| x   Mute note
| b   Bend
| pb  Pre-bend
| br  Bend release
| pbr Pre-bend release
| brb Bend release bend

************************************
Добавлено: 29.12.2015
Вам также может быть интересно:
Другие материалы по этой песне:
  • Аккорды и текст

Страница создана 29.12.2015
http://primanota.ru/linda-perhacs/chimacum-rain-chords.htm
Привет, Гость.
Предлагаем пройти революционный курс по гитаре.
Подарок от PrimaNota.Ru, забирай!