PrimaNota.ru - самый крупный в мире бесплатный архив песенных текстов, аккордов, табулатур и нот


Linda Martini - S De Jéssica - таба, видео

Регистрация Запомнить меня
Войти через:  Facebook Google Twitter Vk Yandex Mail.ru

Linda Martini - S De Jéssica - таба, видео

Печатать
Просмотров: 46
Guitarra do André Henriques:

Intro/Main Riff  (x8)
e|---------------------------------------|
B|---------------------------------------|
G|--------------4------------------------|
D|-----------5-----5---------------------|
A|-----5--7-----------------5------------|
E|--7-----------------7--7---------------|

Riff 2.1                                  Riff 2.2
e|---------------------------------------|------------------------|
B|---------------------------------------|------------------------|
G|---------------------------------------|------------------------|
D|-----------------0---------------------|---0---4-----4--------5-|
A|--3--5--3--5------------3--5--3--5-----|----------5-----5-------|
E|--------------7---------------------7--|-------------------7----|

Main Riff  (x4)
e|---------------------------------------|
B|---------------------------------------|
G|--------------4------------------------|
D|-----------5-----5---------------------|
A|-----5--7-----------------5------------|
E|--7-----------------7--7---------------|

Riff 2.1                                  Riff 2.2
e|---------------------------------------|------------------------|
B|---------------------------------------|------------------------|
G|---------------------------------------|------------------------|
D|-----------------0---------------------|---0---4-----4--------5-|
A|--3--5--3--5------------3--5--3--5-----|----------5-----5-------|
E|--------------7---------------------7--|-------------------7----|

Riff 3.1  (x3)                         Riff 3.2 (x1)
e|-----------------------------------|-----------------------------------|
B|-----------------------------------|-----------------------------------|
G|-----------------------5--4--9-----|-----------------------5--4--------|
D|--5--9--7--9--5--9--------------7--|--5--9--7--9--5--9-----------5-----|
A|--------------------7--------------|--------------------7--------------|
E|-----------------------------------|--------------------------------7--|

Riff 3.1                              Riff 3.2                        
e|-----------------------------------|-----------------------------------|
B|-----------------------------------|-----------------------------------|
G|-----------------------5--4--9-----|-----------------------5--4--------|
D|--5--9--7--9--5--9--------------7--|--5--9--7--9--5--9-----------5-----|  (x2)
A|--------------------7--------------|--------------------7--------------|
E|-----------------------------------|--------------------------------7--|

Main Riff (x4)
e|------------------------------------------|
B|------------------------------------------|
G|--------------4---------------------------|
D|-----------5-----5------------------------|
A|-----5--7-----------------5---------------|
E|--7-----------------7--7------------------|

Riff 2.1
e|------------------------------------------|
B|------------------------------------------|
G|------------------------------------------|
D|-----------------0------------------------|
A|--3--5--3--5------------3--5--3--5-----5--|
E|--------------7---------------------7-----|

Final
e|------------------------------------------|
B|------------------------------------------|
G|----------------------5--4--2-------------|
D|--4--5--7--9--7----5--5--4--2-------------|
A|-------------------5--3--2--0-------------|
E|-------------------3----------------------|

Sugestões para melhorar a TAB são sempre bem-vindas!

Abreijos,
Zolw
Добавлено: 04.06.2016
Другие материалы по этой песне:
  • Аккорды и текст

Страница создана 04.06.2016
http://primanota.ru/linda-martini/s-de-jessica-chords.htm
Привет, Гость.
Предлагаем пройти революционный курс по гитаре.
Подарок от PrimaNota.Ru, забирай!