PrimaNota.ru - самый крупный в мире бесплатный архив песенных текстов, аккордов, табулатур и нот


Lincoln - Straight - таба, видео

Регистрация Запомнить меня
Войти через:  Facebook Google Twitter Vk Yandex Mail.ru

Lincoln - Straight - таба, видео

Печатать
Просмотров: 75
Уроки эстрадного вокала в Санкт-Петербурге



Date: Wed, 1 Mar 2006 01:05:12 -0500
From: Randall Leeds 
Subject: l/lincoln/straight.tab

Straight by Lincoln from the self-titled album.
Transcribed by Randall Leeds

Totally accoustic, finger picked.  Listen to the song for the exact rhythms.
I've done my best to transcribe every note I can but it's unrealistic to 
expect
it to be perfect.  Use your ears.

Tune down one half step.

Intro:
   Dbsus2       Eb               Dbsus2       Eb
Eb|----0-------|0-------0-------|----0-------|0-----0---------|
Bb|------3-----|0---------------|------3-----|0---0-----------|
Gb|--2-----2---|--------4p21/2-|--2-----2---|----------------|
Db|0---------0-|----------------|0---------0-|----------------|
Ab|------------|----------------|------------|----------------|
Eb|------------|0---0-0---------|------------|0-------0-2-4-5-|

   Dbsus2       Eb               Fm             Dbsus2
Eb|----0-------|0-------0---0---|----------2---|0-------------|
Bb|------3-----|0---------------|----2-------2-|0-------------|
Gb|--2-----2---|--------4/6-4p2-|------2-------|--------------|
Db|0---------0-|----------------|--------4-----|--------------|
Ab|------------|----------------|--4-----------|--------------|
Eb|------------|0---0-0---------|2-------------|0-------------|


Verse 1:
Same as intro but there's a variation on the last measure and lead-in to the
second verse after it.

Last measure:     Lead in:
   Dbsus2
Eb|0---------0---|0---------------|
Bb|0---------0---|----------------|
Gb|--------------|4p2---2---2---2-|
Db|--------------|----6---4---2---|
Ab|--------------|----------------|
Eb|0---0-0-0---0-|----------------|


Verse 2:
Same as intro and first verse up to the last Dbsus2 but with this final bar 
that
leads into the pre-chorus.
   Dbsus2
Eb|0---------2---|
Bb|0---------0---|
Gb|--------------|
Db|--------------|
Ab|--------------|
Eb|0---0-0-0-----|


Pre-chorus:
   Fm             Eb             Ab            Eb
Eb|2-------2-----|0---------0---|-------------|0-------0-------|
Bb|2---------2---|0---------0---|5------5-----|0---------------|
Gb|------------2-|--------------|6--------6---|--------4p21/2-|
Db|--------------|--------------|7------------|----------------|
Ab|------4-------|--------------|7----7-------|----------------|
Eb|2---2---------|0---0-0-0---4-|5-5----------|0---0-0---------|

   Fm             Eb             Ab            Eb
Eb|2-------2-----|0---------0---|-------------|0-----0---------|
Bb|2---------2---|0---------0---|5------5-----|0---0-----------|
Gb|------------2-|--------------|6--------6---|----------------|
Db|--------------|--------------|7------------|----------------|
Ab|------4-------|--------------|7----7-------|----------------|
Eb|2---2---------|0---0-0-0---4-|5-5----------|0-------0-2-4-5-|


Chorus (Played twice):
   Dbsus2         Eb             Db            Eb
Eb|5---------7---|4---------5---|2---------2--|0-----0---------|
Bb|5-------------|5-------------|3------------|0---0-----------|
Gb|7-------------|4-------------|2------------|----------------|
Db|7-------------|--------------|0---0-0-0----|----------------|
Ab|5---5-5-5-----|--------------|-------------|----------------|
Eb|--------------|0---0-0-0-----|-------------|0-------0-2-4-5-|


Interlude:
Play x2, strumming the final Eb the second time rather than picking the 
pattern.
   Fm              Eb             Db             Ab
Eb|---------------|--------------|--------------|-------------|
Bb|10-------10----|9-------9-----|7-------7-----|5------5-----|
Gb|11---------11--|9---------9---|7---------7---|6------------|
Db|11-----------11|9-----------9-|7-----------7-|7------------|
Ab|9--9-9-9-------|7-7-7-7-------|5-5-5-5-------|7----7-------|
Eb|---------------|--------------|--------------|5-5------4---|

   Fm              Eb             Ab(sus4)       Eb
Eb|---------------|--------------|--------------|-------------|
Bb|2----2---------|--------------|--------------|-------------|
Gb|2------2---4/6-|4-----4-----6-|6-----7-----9-|11---11------|
Db|4--------4-----|2-------2-----|7-------7-----|11------11---|
Ab|4--4-----------|--------------|7---------7---|9----------9-|
Eb|2--------------|0---0-----0---|5---5---------|0--0---------|

After this is a little harmonic run that I can't figure out.  If anyone could
do this and submit it or send it to me, I'd appreciate it a lot.

Verse 3:
Same as second verse, but you can start out not picking every note.  If you
listen to the song I think he leaves out some notes and then builds it up.  If
you want to just play everything though, that of course sounds good.

Pre-chorus and chorus (no interlude):
The second time through the pre-chorus and chorus is the same as the first.
This time, don't play the interlude, but play the outro.

Outro:
   Dbsus2       Ebsus2       Dbsus2       Ebsus2
Eb|5-------5---|7--------7--|5-------5---|7------10p9-------|
Bb|5---------5-|7-----------|5---------5-|7-----------12p10-|
Gb|7-----------|9-----------|7-----------|9-----------------|
Db|7-----7-----|9-----------|7-----7-----|9-----------------|
Ab|5---5-------|7--7-7-7----|5---5-------|7-----------------|
Eb|------------|------------|------------|---0-0------------|

Repeat the outro several times and end with a slowly strummed Fm:
   Fm
Eb|2-----------|
Bb|2-----------|
Gb|2-----------|
Db|4-----------|
Ab|4-----------|
Eb|2-----------|


To summarize, the overall structure of the song is as follows:

Intro
Verse 1 (Lead-in at the end)
Verse 2
Pre-chorus
Chorus
Interlude
Verse 3
Pre-chorus
Chorus
Outro

That's it   If you appreciate this tab, please send me an e-mail and I'll try
to tab out some more Lincoln stuff.  No one seems to know this gem of an 
album.

-Randall


Добавлено: 10.02.2014
Другие материалы по этой песне:
  • Аккорды и текст

Страница создана 10.02.2014
http://primanota.ru/lincoln/straight-chords.htm
Привет, Гость.
Предлагаем пройти революционный курс по гитаре.
Подарок от PrimaNota.Ru, забирай!