PrimaNota.ru - самый крупный в мире бесплатный архив песенных текстов, аккордов, табулатур и нот


Lincoln Brewster - The Love Of God - таба, видео

Регистрация Запомнить меня
Войти через:  Facebook Google Twitter Vk Yandex Mail.ru

Lincoln Brewster - The Love Of God - таба, видео

Печатать
Просмотров: 62
The Love of God
Lincoln Brewster

Intro
e|10----10-9-----9-7-----7-------------------------|
B|---7--------7-------7----10-7--108--7--8-7--7--7-|
G|-------------------------------------------------|
D|-------------------------------------------------|
A|-------------------------------------------------|
E|-------------------------------------------------|

E|------------------------------------------------|
B|---7-------7-------7-------7----7--7--7-8/7-7/5-|
G|9-----9-9-----9-7-----7-9-----9-----------------|
D|------------------------------------------------|
A|------------------------------------------------|
E|------------------------------------------------|

e|-------------------------------------------------|
B|5--7--5-5--7--5----7----------------7------------|
G|----------------7-----7-4/6—9-11-7-----7-7-------|
D|-------------------------------------------------|
A|-------------------------------------------------|
E|-------------------------------------------------|

Verse
e|-------------------------7-----7-10----10-9-----9-|
B|7--7--7-8--7--8-10-7--10----7-------7--------7----|
G|--------------------------------------------------|
D|--------------------------------------------------|
A|--------------------------------------------------|
E|--------------------------------------------------|

e|7-----7-------------------------------------------|
B|---7-----10-7--10-8--7--8-8--7--8----7-------7----|
G|----------------------------------9-----9-9-----9-|
D|--------------------------------------------------|
A|--------------------------------------------------|
E|--------------------------------------------------| 
 
e|-------------------------7-----7-10----10-9-----9-|
B|7--7--7-8--7--8-10-7--10----7-------7--------7----|
G|--------------------------------------------------|
D|--------------------------------------------------|
A|--------------------------------------------------|
E|--------------------------------------------------|

e|7-----7-------------------------------------------|
B|---7-----10-7--10-8--7--8-8--7--8----7------------|
G|----------------------------------9-----9-9-------|
D|--------------------------------------------------|
A|--------------------------------------------------|
E|--------------------------------------------------|

e|----------------------------------------------------------------|
B|---7-------7----7--7--7-7--7--7-8--7--8-8--7--8----7------------|
G|7-----7-9-----9---------------------------------9-----9-9-------|
D|----------------------------------------------------------------|
A|----------------------------------------------------------------|
E|----------------------------------------------------------------|
 (repeat all)

Bridge
e|10-10-10-12-10-----0-7---9-10---12-9—9/10-10-10-10-10----|
B|---------------------------------------------------------|
G|-----------------2---------------------------------------|
D|---------------------------------------------------------|
A|---------------------------------------------------------|
E|---------------------------------------------------------|

e|------------------------------------------------------|
B|12--------15-14-12------------------------------------|
G|-------------------12-14-11------------9-12-----------|
D|--------------------------------------------12--------|
A|------------------------------------------------------|
E|------------------------------------------------------|

e|9-10---12----------------------------------------------|
B|----------14--------10-9---9/10-7---------10-9-7-8-10-7|
G|-------------------------------------------------------|
D|-------------------------------------------------------|
A|-------------------------------------------------------|
E|-------------------------------------------------------|

e|----------------------------------------------------------------|
B|---7-------7----7--7--7-7--7--7-8--7--8-8--7--8----7-------7----|
G|7-----7-9-----9---------------------------------9-----9-9-----9-|
D|----------------------------------------------------------------|
A|----------------------------------------------------------------|
E|----------------------------------------------------------------|

e|------------------------------------------------------------|
B|---7-------7----7--7--7-7--7--7-8--7--8-8--7--8----7--------|
G|7-----7-9-----9---------------------------------9-----9-9---|
D|------------------------------------------------------------|
A|------------------------------------------------------------|
E|------------------------------------------------------------|
 (repeat line)

Ending
e|10----10-9-----9-7-----7-----------------------------------------|
B|---7--------7-------7----10-7--108--7--8-7--7--7----7-------7----|
G|-------------------------------------------------9-----9-9-----9-|
D|-----------------------------------------------------------------|
A|-----------------------------------------------------------------|
E|-----------------------------------------------------------------|

e|10----10-9-----9-7-----7-----------------0-----0---------0----------|
B|---7--------7-------7----10-7--108--7--8----7-------7----7----------|
G|-------------------------------------------------7-----7-7----------|
D|---------------------------------------------------------0----------|
A|---------------------------------------------------------0----------|
E|---------------------------------------------------------0----------|

Добавлено: 10.11.2013
Другие материалы по этой песне:
  • Аккорды и текст

Страница создана 15.08.2013
http://primanota.ru/lincoln-brewster/the-love-of-god-chords.htm
Привет, Гость.
Предлагаем пройти революционный курс по гитаре.
Подарок от PrimaNota.Ru, забирай!