PrimaNota.ru - самый крупный в мире бесплатный архив песенных текстов, аккордов, табулатур и нот


Limp Wrist - This Aint No Cross On My Hand - таба, видео

Регистрация Запомнить меня
Войти через:  Facebook Google Twitter Vk Yandex Mail.ru

Limp Wrist - This Aint No Cross On My Hand - таба, видео

Печатать
Просмотров: 80
-------------------------------------------------------------------------------
This Ain't No Cross On My Hand - Limp Wrist
Thee Official Limp Wrist Discography
-------------------------------------------------------------------------------
Tabbed by: axeslash	
Email: holmzito@yahoo.com

Tuning: Standard

e|----------------------------|
B|----------------------------|
G|-------12--------9--11--12--|
D|-11----12--11----9--11--12--|
A|-11----10--11----7---9--10--|
E|--9---------9---------------|

e|---------------------------------------|
B|---------------------------------------|
G|---------------------12-12--12-9-9---9-|
D|-11-11--11-11-11--11-12-12--12-9-9---9-|
A|-11-11--11-11-11--11-10-10--10-7-7---7-|
E|--9--9---9--9--9---9-------------------| x4

e|-------------------------------------------|
B|-------------------------------------------|
G|-----------9----12--------------9----12----|
D|-11--------9----12----11--------9----12----|
A|-11--------7----10----11--------7----10----|
E|--9--------------------9-------------------|

e|---------------------------------------|
B|---------------------------------------|
G|---------------------12-12--12-9-9---9-|
D|-11-11--11-11-11--11-12-12--12-9-9---9-|
A|-11-11--11-11-11--11-10-10--10-7-7---7-|
E|--9--9---9--9--9---9-------------------| x4

e|-------------------------------------------|
B|-------------------------------------------|
G|-----------9----12--------------9----12----|
D|-11--------9----12----11--------9----12----|
A|-11--------7----10----11--------7----10----|
E|--9--------------------9-------------------|

e|-------------------------------------------------------------------|
B|-------------------------------------------------------------------|
G|---------------------9-9--9-9-9--9-12-12--12-12-12--12-------------|
D|-11-11--11-11-11--11-9-9--9-9-9--9-12-12--12-12-12--12-9-9--8-9-9--|
A|-11-11--11-11-11--11-7-7--7-7-7--7-10-10--10-10-10--10-9-9--8-9-9--|
E|--9--9---9--9--9---9-----------------------------------7-7--6-7-7--| x2

e|----------------------------|
B|----------------------------|
G|-------12--------9--11--12--|
D|-11----12--11----9--11--12--|
A|-11----10--11----7---9--10--|
E|--9---------9---------------|


| /  slide up
| \  slide down
| h  hammer-on
| p  pull-off
| ~  vibrato
| +  harmonic
| x  Mute note
===============================================================================
Добавлено: 13.10.2013
Другие материалы по этой песне:
  • Аккорды и текст

Страница создана 13.10.2013
http://primanota.ru/limp-wrist/this-aint-no-cross-on-my-hand-chords.htm
Привет, Гость.
Предлагаем пройти революционный курс по гитаре.
Подарок от PrimaNota.Ru, забирай!