PrimaNota.ru - самый крупный в мире бесплатный архив песенных текстов, аккордов, табулатур и нот


Limp Wrist - Thee Official Limp Wrist Discography - таба, видео

Регистрация Запомнить меня
Войти через:  Facebook Google Twitter Vk Yandex Mail.ru

Limp Wrist - Thee Official Limp Wrist Discography - таба, видео

Печатать
Просмотров: 51
 --------------------------------------------------
| Limp Wrist: Thee Official Limp Wrist Discography |
 --------------------------------------------------

Tabbed by: axeslash
Email: holmzito@yahoo.com

This album contains all of the songs from Thee Official Limp Wrist Discography.
Some of the songs on this album are simply re-recordings of older songs and are 
played the exact same way as the original recording.  So this album tab won't
have 41 tabs but I assure you that you can play every song on this album from
this tab.

Tab List:
1.  What's Up With The Kids
2.  Stabbed In The Back
3.  Punk Ass Queers
4.  Rainbows
5.  Recruiting Time
6.  Define
7.  I Love Hardcore Boys, I Love Boys Hardcore
8.  Secrets
9.  Cruisin' At The Show
10. Smear The Fear
11. You Ain't That Fierce
12. Back In The Days
13. Relatives Got Nerve
14. Cheap Art
15. Limp Wrist
16. Limp Wrist vs. Dr. Laura
17. This Ain't No Cross On My Hand
18. Brotherhood
19. Thanks
20. We Started This Band To Get Dates
21. OD'd On Pop
22. Give Me A Fuckin' Break
23. Man To Man
24. No Choice
25. Twelve Years Of Church
26. A Message To The President
27. Angry Queen
28. The Ode
29. Complex
30. Does Your Daddy Know?

For every song all the guitars are in standard tuning.


     -------------------------
#1  | What's Up With The Kids |  1#
     -------------------------


Guitar 1:
e|----------------------------------|
B|----------------------------------|
G|-9-9-9-9---------9-9-9-9----------|
D|-9-9-9-9-9-7---7-9-9-9-9-9-7----7-|
A|-7-7-7-7-9-7---7-7-7-7-7-9-7----7-|
E|---------7-5---5---------7-5----5-|

Guitars 1 & 2:                         Guitars 1 & 2:
e|-------------------------------|     e|-----------------------------------------------|
B|-------------------------------|     B|-----------------------------------------------|
G|-9-9-9-9--------9-9-9-9--------|     G|-9-9-9-9--------9-9-9-9------------------------|
D|-9-9-9-9-9-7----9-9-9-9-9-7----|     D|-9-9-9-9-9-7----9-9-9-9-9-7--------------------|
A|-7-7-7-7-9-7----7-7-7-7-9-7----|     A|-7-7-7-7-9-7----7-7-7-7-9-7----6-6-6-6-8-8-8-8-|
E|---------7-5------------7-5----| x2  E|---------7-5------------7-5----6-6-6-6-8-8-8-8-|

Guitars 1 & 2:                         Guitars 1 & 2:
e|-------------------------------|     e|-----------------------------------------------|
B|-------------------------------|     B|-----------------------------------------------|
G|-9-9-9-9--------9-9-9-9--------|     G|-9-9-9-9--------9-9-9-9------------------------|
D|-9-9-9-9-9-7----9-9-9-9-9-7----|     D|-9-9-9-9-9-7----9-9-9-9-9-7--------------------|
A|-7-7-7-7-9-7----7-7-7-7-9-7----|     A|-7-7-7-7-9-7----7-7-7-7-9-7----6-6-6-6-8-8-8-8-|
E|---------7-5------------7-5----| x2  E|---------7-5------------7-5----6-6-6-6-8-8-8-8-|

Guitars 1 & 2:
e|-----------------------------------------------------|
B|-----------------------------------------------------|
G|-9-9--9-9--10-10-10--7-7-7-9-9--9-9--10-10-10--7-7-7-|
D|-9-9--9-9--10-10-10--7-7-7-9-9--9-9--10-10-10--7-7-7-|
A|-7-7--7-7---8--8--8--5-5-5-7-7--7-7---8--8--8--5-5-5-|
E|-----------------------------------------------------|

Guitars 1 & 2:                         Guitars 1 & 2:
e|-------------------------------|     e|-----------------------------------------------|
B|-------------------------------|     B|-----------------------------------------------|
G|-9-9-9-9--------9-9-9-9--------|     G|-9-9-9-9--------9-9-9-9------------------------|
D|-9-9-9-9-9-7----9-9-9-9-9-7----|     D|-9-9-9-9-9-7----9-9-9-9-9-7--------------------|
A|-7-7-7-7-9-7----7-7-7-7-9-7----|     A|-7-7-7-7-9-7----7-7-7-7-9-7----6-6-6-6-8-8-8-8-|
E|---------7-5------------7-5----| x2  E|---------7-5------------7-5----6-6-6-6-8-8-8-8-|

Guitars 1 & 2:                         Guitars 1 & 2:
e|-------------------------------|     e|-----------------------------------------------|
B|-------------------------------|     B|-----------------------------------------------|
G|-9-9-9-9--------9-9-9-9--------|     G|-9-9-9-9--------9-9-9-9------------------------|
D|-9-9-9-9-9-7----9-9-9-9-9-7----|     D|-9-9-9-9-9-7----9-9-9-9-9-7--------------------|
A|-7-7-7-7-9-7----7-7-7-7-9-7----|     A|-7-7-7-7-9-7----7-7-7-7-9-7----6-6-6-6-8-8-8-8-|
E|---------7-5------------7-5----| x2  E|---------7-5------------7-5----6-6-6-6-8-8-8-8-|

Guitars 1 & 2:
e|-----------------------------------------------------|
B|-----------------------------------------------------|
G|-9-9--9-9--10-10-10--7-7-7-9-9--9-9--10-10-10--7-7-7-|
D|-9-9--9-9--10-10-10--7-7-7-9-9--9-9--10-10-10--7-7-7-|
A|-7-7--7-7---8--8--8--5-5-5-7-7--7-7---8--8--8--5-5-5-|
E|-----------------------------------------------------|

Guitars 1 & 2:
e|-----------------------------------------------------------------------------------|
B|-----------------------------------------------------------------------------------|
G|-9----------------------------------------9----------------------------------------|
D|-9----------------------------------------9----------------------------------------|
A|-7----------------------------------------7----------------------------------------|
E|-----------------------------------------------------------------------------------|

Guitars 1 & 2:
e|------------------------------|
B|------------------------------|
G|-9--9-------10--10-10---------|
D|-9--9--7--7-10--10-10--10-9-7-|
A|-7--7--7--7--8---8--8--10-9-7-|
E|-------5--5-------------8-7-5-| x4

Guitars 1 & 2:                         Guitars 1 & 2:
e|-------------------------------|     e|---------------------------------|
B|-------------------------------|     B|---------------------------------|
G|-9-9-9-9--------9-9-9-9--------|     G|-9-9-9-9--------9-9-9-9--------9-|
D|-9-9-9-9-9-7----9-9-9-9-9-7----|     D|-9-9-9-9-9-7----9-9-9-9-9-7----9-|
A|-7-7-7-7-9-7----7-7-7-7-9-7----|     A|-7-7-7-7-9-7----7-7-7-7-9-7----7-|
E|---------7-5------------7-5----| x2  E|---------7-5------------7-5------|


     ---------------------
#2  | Stabbed In The Back |  2#
     ---------------------


e|---------------------------------|
B|---------------------------------|
G|-------6-6--------------8--8-8-7-|
D|-5-5-5-6-6--5-5-5-7-7-7-8--8-8-7-|
A|-5-5-5-4-4--5-5-5-7-7-7-6--6-6-5-|
E|-3-3-3------3-3-3-5-5-5----------| x4

e|----------------------------------------------------------|
B|----------------------------------------------------------|
G|----------------------------------------------------------|
D|-7-7-7-7-7-7-7-7-5-5-5-5-5-5-5-5-7-7-7-7-7-7-7-7-5--------|
A|-7-7-7-7-7-7-7-7-5-5-5-5-5-5-5-5-7-7-7-7-7-7-7-7-5--------|
E|-5-5-5-5-5-5-5-5-3-3-3-3-3-3-3-3-5-5-5-5-5-5-5-5-3--------|

e|-------------------------------|
B|-------------------------------|
G|-------6--------------8--8-8-7-|
D|-5-5-5-6--5-5-5-7-7-7-8--8-8-7-|
A|-5-5-5-4--5-5-5-7-7-7-6--6-6-5-|
E|-3-3-3----3-3-3-5-5-5----------| x4

e|----------------------------------------------------------|
B|----------------------------------------------------------|
G|----------------------------------------------------------|
D|-7-7-7-7-7-7-7-7-5-5-5-5-5-5-5-5-7-7-7-7-7-7-7-7-5--------|
A|-7-7-7-7-7-7-7-7-5-5-5-5-5-5-5-5-7-7-7-7-7-7-7-7-5--------|
E|-5-5-5-5-5-5-5-5-3-3-3-3-3-3-3-3-5-5-5-5-5-5-5-5-3--------|

e|---------------|
B|---------------|
G|-------6-6-----|
D|-5-5-5-6-6--5--|
A|-5-5-5-4-4--5--|
E|-3-3-3------3--|


     -----------------
#3  | Punk Ass Queers |  3#
     -----------------


Tuning: Both guitars standard

Guitar 1:
e|-------------------------------------------------------------------------|
B|-9-9-9-9-9-9-9-9-9-9-9-9-9-9-9-9-9-9-9-9-9-9-9-9-9-9-9-9-9-9-9-9---------|
G|-9-9-9-9-9-9-9-9-9-9-9-9-9-9-9-9-9-9-9-9-9-9-9-9-9-9-9-9-9-9-9-9---------|
D|-9-9-9-9-9-9-9-9-9-9-9-9-9-9-9-9-9-9-9-9-9-9-9-9-9-9-9-9-9-9-9-9---------|
A|-7-7-7-7-7-7-7-7-7-7-7-7-7-7-7-7-7-7-7-7-7-7-7-7-7-7-7-7-7-7-7-7---------|
E|-------------------------------------------------------------------------|

Guitar 1:
e|----------------------------------------------------|
B|----------------------------------------------------|
G|-9--9-9-9-9-9-9-9-9--9-9-9-9-9-9--9-9-9-9-9-9----7--|
D|-9--9-9-9-9-9-9-9-9--9-9-9-9-9-9--9-9-9-9-9-9-5--7--|
A|-7--7-7-7-7-7-7-7-7--7-7-7-7-7-7--7-7-7-7-7-7-5--5--|
E|----------------------------------------------3-----|
Guitar 2:
e|----------------------------------------------------|
B|----------------------------------------------------|
G|-------------------------------------------------7--|
D|----------------------------------------------5--7--|
A|----------------------------------------------5--5--|
E|----------------------------------------------3-----|

Guitar 1:
e|----------------------------------------------------|
B|----------------------------------------------------|
G|-9--9-9-9-9-9-9-9-9--9-9-9-9-9-9--9-9-9-9-9-9----7--|
D|-9--9-9-9-9-9-9-9-9--9-9-9-9-9-9--9-9-9-9-9-9-5--7--|
A|-7--7-7-7-7-7-7-7-7--7-7-7-7-7-7--7-7-7-7-7-7-5--5--|
E|----------------------------------------------3-----|
Guitar 2:
e|----------------------------------------------------|
B|----------------------------------------------------|
G|-9-----------------------------------------------7--|
D|-9--------------------------------------------5--7--|
A|-7--------------------------------------------5--5--|
E|----------------------------------------------3-----|

Guitars 1 & 2:
e|-----------------------------------------------------------------|
B|-----------------------------------------------------------------|
G|-9-9-9-9-9-9-9-9-9-9-9-9-9-9-9-9-9-9-9-9-9-9-9-9---------7-7-7-7-|
D|-9-9-9-9-9-9-9-9-9-9-9-9-9-9-9-9-9-9-9-9-9-9-9-9-5-5-5-5-7-7-7-7-|
A|-7-7-7-7-7-7-7-7-7-7-7-7-7-7-7-7-7-7-7-7-7-7-7-7-5-5-5-5-5-5-5-5-|
E|-------------------------------------------------3-3-3-3---------| x2

Guitars 1 & 2:
e|-----------------------------------------------------------------|
B|-----------------------------------------------------------------|
G|-9-9-9-9-9-9-9-9-7-7-7-7-7-7-7-7---------------------------------|
D|-9-9-9-9-9-9-9-9-7-7-7-7-7-7-7-7-8-8-8-8-8-8-8-8-8-8-8-8-8-8-8-8-|
A|-7-7-7-7-7-7-7-7-5-5-5-5-5-5-5-5-8-8-8-8-8-8-8-8-8-8-8-8-8-8-8-8-|
E|---------------------------------6-6-6-6-6-6-6-6-6-6-6-6-6-6-6-6-|

Guitars 1 & 2:
e|----------------------------------------------------------------------|
B|----------------------------------------------------------------------|
G|-9-9-9-9-9-9-9-9-7-7-7-7-7-7-7-7--------------------------------------|
D|-9-9-9-9-9-9-9-9-7-7-7-7-7-7-7-7-8-8-8-8-8-8-8-8-8-8-8-8-8-8-8-8-4----|
A|-7-7-7-7-7-7-7-7-5-5-5-5-5-5-5-5-8-8-8-8-8-8-8-8-8-8-8-8-8-8-8-8-4----|
E|---------------------------------6-6-6-6-6-6-6-6-6-6-6-6-6-6-6-6-2----|

Guitar 1:
e|----------------------------------------------------|
B|----------------------------------------------------|
G|-9--9-9-9-9-9-9-9-9--9-9-9-9-9-9--9-9-9-9-9-9----7--|
D|-9--9-9-9-9-9-9-9-9--9-9-9-9-9-9--9-9-9-9-9-9-5--7--|
A|-7--7-7-7-7-7-7-7-7--7-7-7-7-7-7--7-7-7-7-7-7-5--5--|
E|----------------------------------------------3-----|
Guitar 2:
e|----------------------------------------------------|
B|----------------------------------------------------|
G|-------------------------------------------------7--|
D|----------------------------------------------5--7--|
A|----------------------------------------------5--5--|
E|----------------------------------------------3-----|

Guitars 1 & 2:
e|-----------------------------------------------------------------|
B|-----------------------------------------------------------------|
G|-9-9-9-9-9-9-9-9-9-9-9-9-9-9-9-9-9-9-9-9-9-9-9-9---------7-7-7-7-|
D|-9-9-9-9-9-9-9-9-9-9-9-9-9-9-9-9-9-9-9-9-9-9-9-9-5-5-5-5-7-7-7-7-|
A|-7-7-7-7-7-7-7-7-7-7-7-7-7-7-7-7-7-7-7-7-7-7-7-7-5-5-5-5-5-5-5-5-|
E|-------------------------------------------------3-3-3-3---------| x2

Guitars 1 & 2:
e|-----------------------------------------------------------------|
B|-----------------------------------------------------------------|
G|-9-9-9-9-9-9-9-9-7-7-7-7-7-7-7-7---------------------------------|
D|-9-9-9-9-9-9-9-9-7-7-7-7-7-7-7-7-8-8-8-8-8-8-8-8-8-8-8-8-8-8-8-8-|
A|-7-7-7-7-7-7-7-7-5-5-5-5-5-5-5-5-8-8-8-8-8-8-8-8-8-8-8-8-8-8-8-8-|
E|---------------------------------6-6-6-6-6-6-6-6-6-6-6-6-6-6-6-6-|

Guitars 1 & 2:
e|----------------------------------------------------------------------|
B|----------------------------------------------------------------------|
G|-9-9-9-9-9-9-9-9-7-7-7-7-7-7-7-7--------------------------------------|
D|-9-9-9-9-9-9-9-9-7-7-7-7-7-7-7-7-8-8-8-8-8-8-8-8-8-8-8-8-8-8-8-8-4----|
A|-7-7-7-7-7-7-7-7-5-5-5-5-5-5-5-5-8-8-8-8-8-8-8-8-8-8-8-8-8-8-8-8-4----|
E|---------------------------------6-6-6-6-6-6-6-6-6-6-6-6-6-6-6-6-2----|

Guitars 1 & 2:
e|---------------------------------------------------------------------------|
B|---------------------------------------------------------------------------|
G|-9--9-9-9-9-9--7--7-7-7-7-7-7-10--10-10-10-10-10-10------------------------|
D|-9--9-9-9-9-9--7--7-7-7-7-7-7-10--10-10-10-10-10-10--10--10-10-10-10-10-10-|
A|-7--7-7-7-7-7--5--5-5-5-5-5-5--8---8--8--8--8--8--8--10--10-10-10-10-10-10-|
E|---[X-X-X-X-X]---[X-X-X-X-X-X]----[X--X--X--X--X--X]--8---8--8--8--8--8--8-|
							   [X--X--X--X--X--X]

Guitars 1 & 2:
e|---------------------------------|    e|----------|
B|---------------------------------|    B|----------|
G|-9-7-10--------------------------|    G|-9--------|
D|-9-7-10--10-10-10-10-10-10-10-10-|    D|-9--------|
A|-7-5--8--10-10-10-10-10-10-10-10-|    A|-7--------|
E|----------8--8--8--8--8--8--8--8-| x4 E|----------|


     ----------
#4  | Rainbows |  4#
     ----------


Guitar 1:
e|-----------------------------------------------------------------|
B|-----------------------------------------------------------------|
G|-7-7-7-7-7--7-7-7-------------------7-7-7-7-7--7-7-7-------------|
D|-7-7-7-7-7--7-7-7-8--8-8-5--5-5-5-5-7-7-7-7-7--7-7-7-8--8-8-5----|
A|-5-5-5-5-5--5-5-5-8--8-8-5--5-5-5-5-5-5-5-5-5--5-5-5-8--8-8-5----|
E|------------------6--6-6-3--3-3-3-3------------------6--6-6-3----|

Guitars 1 & 2:
e|------------------------------------|
B|------------------------------------|
G|-7-7-7-7-7--7-7-7-------------------|
D|-7-7-7-7-7--7-7-7-8--8-8-5--5-5-5-5-|
A|-5-5-5-5-5--5-5-5-8--8-8-5--5-5-5-5-|
E|------------------6--6-6-3--3-3-3-3-|

Guitars 1 & 2:
e|----------------------------------|
B|----------------------------------|
G|-7-7-7-8--8-8-8-10-10-10-5--5-5-5-|
D|-7-7-7-8--8-8-8-10-10-10-5--5-5-5-|
A|-5-5-5-6--6-6-6--8--8--8-3--3-3-3-|
E|----------------------------------|

Guitars 1 & 2:
e|---------------------------------------------------------------------------|
B|---------------------------------------------------------------------------|
G|-7------------------(nice long guitar pause here)--------------------------|
D|-7-------------------------------------------------------------------------|
A|-5-------------------------------------------------------------------------|
E|---------------------------------------------------------------------------|

Guitars 1 & 2:
e|-------------------------------------------------------------|
B|-------------------------------------------------------------|
G|-7-7-7-7-7--7-7-7-7-7-7-7-7----7-7-7-7-7--7-7-7-7-7-7-7-7----|
D|-7-7-7-7-7--7-7-7-7-7-7-7-7----7-7-7-7-7--7-7-7-7-7-7-7-7----|
A|-5-5-5-5-5--5-5-5-5-5-5-5-5----5-5-5-5-5--5-5-5-5-5-5-5-5----|
E|-------------------------------------------------------------|

Guitars 1 & 2:
e|----------------------------------|
B|----------------------------------|
G|-7-7-7-8--8-8-8-10-10-10-5--5-5-5-|
D|-7-7-7-8--8-8-8-10-10-10-5--5-5-5-|
A|-5-5-5-6--6-6-6--8--8--8-3--3-3-3-|
E|----------------------------------|

Guitars 1 & 2:
e|-------------------------------------|
B|-------------------------------------|
G|-7-7-7-8--8-8-8-10-10-10-5--5-5-5-7--|
D|-7-7-7-8--8-8-8-10-10-10-5--5-5-5-7--|
A|-5-5-5-6--6-6-6--8--8--8-3--3-3-3-5--|
E|-------------------------------------|


     -----------------
#5  | Recruiting Time |  5#
     -----------------


e|------------------|  e|----------------|     e|-------------------|
B|------------------|  B|----------------|     B|-------------------|
G|------------------|  G|---------5------|     G|-------------------|
D|------------------|  D|-4-4-4-4-3-5--5-|     D|-7-7-7-7-7-7-7/10--|
A|-2----------------|  A|-2-2-2-2---3--3-|     A|-5-5-5-5-5-5-5/-8--|
E|------------------|  E|----------------| x4  E|-------------------|

e|----------------|     e|-------------------|
B|----------------|     B|-------------------|
G|---------5------|     G|-------------------|
D|-4-4-4-4-3-5--5-|     D|-7-7-7-7-7-7-7/10--|
A|-2-2-2-2---3--3-|     A|-5-5-5-5-5-5-5/-8--|
E|----------------| x4  E|-------------------|

e|--------------------------------|  e|---------------------------|
B|--------------------------------|  B|---------------------------|
G|--------------------------------|  G|-----------5-------------5-|
D|-4----4----4----4-4-4-4-4-4-4-4-|  D|-4-4-4-4-4-3---7-7-7-7-7-3-|
A|-2----2----2----2-2-2-2-2-2-2-2-|  A|-2-2-2-2-2-----5-5-5-5-5---|
E|---------------[X-X-X-X-X-X-X-X]|  E|---------------------------|

e|-----------------------------------|
B|-----------------------------------|
G|-----------------------------------|
D|-4----------------4----------------|
A|-2----------------2----------------|
E|-----------------------------------|

e|----------------|     e|-------------------|
B|----------------|     B|-------------------|
G|---------5------|     G|---------5---------|
D|-4-4-4-4-3-5--5-|     D|-4-4-4-4-3-5--5-4--|
A|-2-2-2-2---3--3-|     A|-2-2-2-2---3--3-2--|
E|----------------| x3  E|-------------------|


     --------
#6  | Define |  6#
     --------


e|-------------------------------------|
B|-------------------------------------|
G|----12-----12------------------------|
D|-9--12--9--12--12-12--12-12-12-12-12-|
A|-9--10--9--10--12-12--12-12-12-12-12-|
E|-7------7------10-10--10-10-10-10-10-| x4

e|------------------------------------------------|
B|------------------------------------------------|
G|----------10------------------------------------|
D|-9--------10--------12--------9--12----9--12----|
A|-9---------8--------12--------9--12----9--12----|
E|-7------------------10--------7--10----7--10----|

e|----------------------------------------------|
B|----------------------------------------------|
G|----------10----------------------------------|
D|-9--------10--------12------------------------|
A|-9---------8--------12------------------------|
E|-7------------------10------------------------|

e|-------------------------------------|
B|-------------------------------------|
G|----12-----12------------------------|
D|-9--12--9--12--12-12--12-12-12-12-12-|
A|-9--10--9--10--12-12--12-12-12-12-12-|
E|-7------7------10-10--10-10-10-10-10-| x4

e|------------------------------------------------|
B|------------------------------------------------|
G|----------10------------------------------------|
D|-9--------10--------12--------9--12----9--12----|
A|-9---------8--------12--------9--12----9--12----|
E|-7------------------10--------7--10----7--10----|

e|------------------------------------------------|
B|------------------------------------------------|
G|----------10------------------------------------|
D|-9--------10--------12------------------------9-|
A|-9---------8--------12------------------------9-|
E|-7------------------10------------------------7-|


     --------------------------------------------
#7  | I Love Hardcore Boys, I Love Boys Hardcore |  7#
     --------------------------------------------


e|-----------------------------------|
B|-----------------------------------|
G|-4----------------4----------X\----|
D|-4----------------4----------X\----|
A|-2----------------2----------X\----|
E|-----------------------------------|

e|-------------------------------------------------------|
B|-------------------------------------------------------|
G|---------------------------------------------8-8--8-8--|
D|-4-4--4-4-4--4-4-4--4-4------------7-7--7-7--6-6--6-6--|
A|-2-2--2-2-2--2-2-2--2-2--3-3--3-3--5-5--5-5------------|
E|-------------------------1-1--1-1----------------------| x2

e|-------------------------------------------------------------|
B|-------------------------------------------------------------|
G|-4--4--X-X-X-X-4--4--X-X-X-X-4-4-4-4-4-4-4-4-4-4-4-4-4-4-4-4-|
D|-4--4--X-X-X-X-4--4--X-X-X-X-4-4-4-4-4-4-4-4-4-4-4-4-4-4-4-4-|
A|-2--2--X-X-X-X-2--2--X-X-X-X-2-2-2-2-2-2-2-2-2-2-2-2-2-2-2-2-|
E|-------------------------------------------------------------|

e|-------------------------------------------------------|
B|-------------------------------------------------------|
G|---------------------------------------------8-8--8-8--|
D|-4-4--4-4-4--4-4-4--4-4------------7-7--7-7--6-6--6-6--|
A|-2-2--2-2-2--2-2-2--2-2--3-3--3-3--5-5--5-5------------|
E|-------------------------1-1--1-1----------------------| x2

e|-------------------------------------------------------------|
B|-------------------------------------------------------------|
G|-4--4--X-X-X-X-4--4--X-X-X-X-4-4-4-4-4-4-4-4-4-4-4-4-4-4-4-4-|
D|-4--4--X-X-X-X-4--4--X-X-X-X-4-4-4-4-4-4-4-4-4-4-4-4-4-4-4-4-|
A|-2--2--X-X-X-X-2--2--X-X-X-X-2-2-2-2-2-2-2-2-2-2-2-2-2-2-2-2-|
E|-------------------------------------------------------------|

e|------------------------------------------------|
B|------------------------------------------------|
G|------------------------------------7--7--7--7--|
D|-4----4--4--4--4--4--4--3--3--3--3--7--7--7--7--|
A|-2----2--2--2--2--4--4--3--3--3--3--5--5--5--5--|
E|------------------2--2--1--1--1--1--------------| x4

e|-----------------------------------|
B|-----------------------------------|
G|-4----------------4----------X\----|
D|-4----------------4----------X\----|
A|-2----------------2----------X\----|
E|-----------------------------------|

e|--------------------------------------------|
B|--------------------------------------------|
G|-4--4--X-X-X-X-4--4--X-X-X-X-4--4--4--4--4--|
D|-4--4--X-X-X-X-4--4--X-X-X-X-4--4--4--4--4--|
A|-2--2--X-X-X-X-2--2--X-X-X-X-2--2--2--2--2--|
E|--------------------------------------------|


     ---------
#8  | Secrets |  8#
     ---------


e|---------------------------------------|
B|---------------------------------------|
G|-----------------------7---8--8--8--8--|
D|-9--9--9--9-6----6--6--5---6--6--6--6--|
A|-7--7--7--7-4----4--4------------------|
E|---------------------------------------| x4

e|---------------------------------------------------------------|
B|---------------------------------------------------------------|
G|-9--X-X-X-X-X-X-X-X-X-X-X-X-X-X-9--X-X-X-X-X-X-X-X-X-X-X-X-X-X-|
D|-9--X-X-X-X-X-X-X-X-X-X-X-X-X-X-9--X-X-X-X-X-X-X-X-X-X-X-X-X-X-|
A|-7--X-X-X-X-X-X-X-X-X-X-X-X-X-X-7--X-X-X-X-X-X-X-X-X-X-X-X-X-X-|
E|---------------------------------------------------------------|

e|-------------------------------------------------|
B|-------------------------------------------------|
G|-9--X-X-X-X-X-X-X-X-X-X-X-X-X-X-9----------------|
D|-9--X-X-X-X-X-X-X-X-X-X-X-X-X-X-9----------------|
A|-7--X-X-X-X-X-X-X-X-X-X-X-X-X-X-7----------------|
E|-------------------------------------------------|

e|---------------------------------------|
B|---------------------------------------|
G|-----------------------7---8--8--8--8--|
D|-9--9--9--9-6----6--6--5---6--6--6--6--|
A|-7--7--7--7-4----4--4------------------|
E|---------------------------------------| x4

e|---------------------------------------------------------------|
B|---------------------------------------------------------------|
G|-9--X-X-X-X-X-X-X-X-X-X-X-X-X-X-9--X-X-X-X-X-X-X-X-X-X-X-X-X-X-|
D|-9--X-X-X-X-X-X-X-X-X-X-X-X-X-X-9--X-X-X-X-X-X-X-X-X-X-X-X-X-X-|
A|-7--X-X-X-X-X-X-X-X-X-X-X-X-X-X-7--X-X-X-X-X-X-X-X-X-X-X-X-X-X-|
E|---------------------------------------------------------------|

e|-----------------------------------------------------------------|
B|-----------------------------------------------------------------|
G|-9--X-X-X-X-X-X-X-X-X-X-X-X-X-X-9--------------------------------|
D|-9--X-X-X-X-X-X-X-X-X-X-X-X-X-X-9--------------------------------|
A|-7--X-X-X-X-X-X-X-X-X-X-X-X-X-X-7--------------------------------|
E|-----------------------------------------------------------------|


     ----------------------
#9  | Cruisin' At The Show |  9#
     ----------------------


e|--------------------------------------------------------|
B|--------------------------------------------------------|
G|----------------------7--7--6--6-6-6-6-6-6-7-7-7--7-7-7-|
D|-2--2-2-2-2-2-2-5-5-5-7--7--6--6-6-6-6-6-6-5-5-7--7-7-7-|
A|-2--2-2-2-2-2-2-5-5-5-5--5--4--4-4-4-4-4-4-----5--5-5-5-|
E|-0--0-0-0-0-0-0-3-3-3-----------------------------------| x4

e|---------------------------|
B|---------------------------|
G|---------------5-----5-----|
D|-7-7-7-4----4--5--4--5--4--|
A|-7-7-7-4----4--3--4--3--4--|
E|-5-5-5-2----2-----2-----2--| x4

e|--------------------------------------------------------|
B|--------------------------------------------------------|
G|----------------------7--7--6--6-6-6-6-6-6-7-7-7--7-7-7-|
D|-2--2-2-2-2-2-2-5-5-5-7--7--6--6-6-6-6-6-6-5-5-7--7-7-7-|
A|-2--2-2-2-2-2-2-5-5-5-5--5--4--4-4-4-4-4-4-----5--5-5-5-|
E|-0--0-0-0-0-0-0-3-3-3-----------------------------------| x4

e|---------------------------|
B|---------------------------|
G|---------------5-----5-----|
D|-7-7-7-4----4--5--4--5--4--|
A|-7-7-7-4----4--3--4--3--4--|
E|-5-5-5-2----2-----2-----2--| x4

e|----------------------------------------------------------------------|
B|----------------------------------------------------------------------|
G|-7-7-7-7-7-7-7-7-7-7-7-7-7-7-7-7-7-7-7-7-7-7-7-7-7-7-7-7-7-7-7-7-7----|
D|-7-7-7-7-7-7-7-7-7-7-7-7-7-7-7-7-7-7-7-7-7-7-7-7-7-7-7-7-7-7-7-7-7----|
A|-5-5-5-5-5-5-5-5-5-5-5-5-5-5-5-5-5-5-5-5-5-5-5-5-5-5-5-5-5-5-5-5-5----|
E|----------------------------------------------------------------------|


     ----------------
#10 | Smear The Fear | 10#
     ----------------


Guitar 1:
e|-----------------------------------------------------------------|
B|-----------------------------------------------------------------|
G|-4-4-4-4-4-4-4-4-4-4-4-4-4-4-4-4-4-4-4-4-4-4-4-4-4-4-4-4-4-4-4-4-|
D|-4-4-4-4-4-4-4-4-4-4-4-4-4-4-4-4-4-4-4-4-4-4-4-4-4-4-4-4-4-4-4-4-|
A|-2-2-2-2-2-2-2-2-2-2-2-2-2-2-2-2-2-2-2-2-2-2-2-2-2-2-2-2-2-2-2-2-|
E|-----------------------------------------------------------------|

Guitars 1 & 2:
e|-----------------------------------------------------------------|
B|-----------------------------------------------------------------|
G|-4-4-4-4-4-4-4-4-4-4-4-4-4-4-4-4-4-4-4-4-4-4-4-4-4-4-4-4-4-4-4-4-|
D|-4-4-4-4-4-4-4-4-4-4-4-4-4-4-4-4-4-4-4-4-4-4-4-4-4-4-4-4-4-4-4-4-|
A|-2-2-2-2-2-2-2-2-2-2-2-2-2-2-2-2-2-2-2-2-2-2-2-2-2-2-2-2-2-2-2-2-|
E|-----------------------------------------------------------------|

Guitars 1 & 2:
e|-------------------------------------------------------------|
B|-------------------------------------------------------------|
G|-4-4-4-4-4-4-4-4---------7-7-7-7-10--10----10----10--10--10--|
D|-4-4-4-4-4-4-4-4-7-7-7-7-7-7-7-7-10--10----10----10--10--10--|
A|-2-2-2-2-2-2-2-2-7-7-7-7-5-5-5-5--8---8-----8-----8---8---8--|
E|-----------------5-5-5-5-------------------------------------| x4

Guitars 1 & 2:
e|-------------------------------------------------------|
B|-------------------------------------------------------|
G|-4-4-4-4-4-4-4-4-3-3-3-3-2-2-2-2-----------------------|
D|-4-4-4-4-4-4-4-4-3-3-3-3-2-2-2-2-2--2----2----2--2--2--|
A|-2-2-2-2-2-2-2-2-1-1-1-1-0-0-0-0-2--2----2----2--2--2--|
E|---------------------------------0--0----0----0--0--0--| x2

Guitars 1 & 2:
e|-------------------------------------------------------------|
B|-------------------------------------------------------------|
G|-4-4-4-4-4-4-4-4---------7-7-7-7-10--10----10----10--10--10--|
D|-4-4-4-4-4-4-4-4-7-7-7-7-7-7-7-7-10--10----10----10--10--10--|
A|-2-2-2-2-2-2-2-2-7-7-7-7-5-5-5-5--8---8-----8-----8---8---8--|
E|-----------------5-5-5-5-------------------------------------| x4

Guitars 1 & 2:
e|-------------------------------------------------------|
B|-------------------------------------------------------|
G|-4-4-4-4-4-4-4-4-3-3-3-3-2-2-2-2-----------------------|
D|-4-4-4-4-4-4-4-4-3-3-3-3-2-2-2-2-2--2----2----2--2--2--|
A|-2-2-2-2-2-2-2-2-1-1-1-1-0-0-0-0-2--2----2----2--2--2--|
E|---------------------------------0--0----0----0--0--0--|

Guitars 1 & 2:
e|------------------------------------------------------------|
B|------------------------------------------------------------|
G|-4-4-4-4-4-4-4-4-3-3-3-3-2-2-2-2----------------------------|
D|-4-4-4-4-4-4-4-4-3-3-3-3-2-2-2-2-2--2----2----2--2--2--2----|
A|-2-2-2-2-2-2-2-2-1-1-1-1-0-0-0-0-2--2----2----2--2--2--2----|
E|---------------------------------0--0----0----0--0--0--0----|


     -----------------------
#11 | You Ain't That Fierce | 11#
     -----------------------


Guitars 1 & 2:
e|-----------------------------------------------------|
B|-----------------------------------------------------|
G|----7--10\-------7--10\-------7--10--7-----7--10--7--|
D|-9--7--10\----9--7--10\----9--7--10--7--9--7--10--7--|
A|-9--5---8\----9--5---8\----9--5---8--5--9--5---8--5--|
E|-7------------7------------7------------7------------|

Guitar 1:
e|-----------------------------------------------------|
B|-----------------------------------------------------|
G|-----------------7--10--7------------------7--10--7--|
D|-9-9-9-9-9-9-9-9-7--10--7--9-9-9-9-9-9-9-9-7--10--7--|
A|-9-9-9-9-9-9-9-9-5---8--5--9-9-9-9-9-9-9-9-5---8--5--|
E|-7-7-7-7-7-7-7-7-----------7-7-7-7-7-7-7-7-----------|

Guitars 1 & 2:
e|-----------------------------------------------------|
B|-----------------------------------------------------|
G|-----------------7--10--7------------------7--10--7--|
D|-9-9-9-9-9-9-9-9-7--10--7--9-9-9-9-9-9-9-9-7--10--7--|
A|-9-9-9-9-9-9-9-9-5---8--5--9-9-9-9-9-9-9-9-5---8--5--|
E|-7-7-7-7-7-7-7-7-----------7-7-7-7-7-7-7-7-----------|

Guitars 1 & 2:
e|--------------------------------------------------------------|
B|--------------------------------------------------------------|
G|-----------------7--10--7------------------7--10--7-----------|
D|-9-9-9-9-9-9-9-9-7--10--7--9-9-9-9-9-9-9-9-7--10--7--9--------|
A|-9-9-9-9-9-9-9-9-5---8--5--9-9-9-9-9-9-9-9-5---8--5--9--------|
E|-7-7-7-7-7-7-7-7-----------7-7-7-7-7-7-7-7-----------7--------|

Guitars 1 & 2:
e|-----------------------------------------------------|
B|-----------------------------------------------------|
G|-----------------7--10--7------------------7--10--7--|
D|-9-9-9-9-9-9-9-9-7--10--7--9-9-9-9-9-9-9-9-7--10--7--|
A|-9-9-9-9-9-9-9-9-5---8--5--9-9-9-9-9-9-9-9-5---8--5--|
E|-7-7-7-7-7-7-7-7-----------7-7-7-7-7-7-7-7-----------| x2

Tempo slows down right here

Guitar 1:
e|---------------------------------------------------------|
B|---------------------------------------------------------|
G|-------10--9--7--7-7-7-7-7-7-------10--9--7--7-7-7-------|
D|-9-9-9-10--9--7--7-7-7-7-7-7-9-9-9-10--9--7--7-7-7-5--7--|
A|-9-9-9--8--7--5--5-5-5-5-5-5-9-9-9--8--7--5--5-5-5-5--7--|
E|-7-7-7-----------------------7-7-7-----------------3--5--|
Guitar 2:
e|---------------------------------------------------------|
B|---------------------------------------------------------|
G|---------------------------------------------------------|
D|-9-9-9-----------------------9-9-9-----------------------|
A|-9-9-9-----------------------9-9-9-----------------------|
E|-7-7-7-----------------------7-7-7-----------------------|

Guitars 1 & 2:
e|---------------------------------------------------------|
B|---------------------------------------------------------|
G|-------10--9--7--7-7-7-7-7-7-------10--9--7--7-7-7-------|
D|-9-9-9-10--9--7--7-7-7-7-7-7-9-9-9-10--9--7--7-7-7-5--7--|
A|-9-9-9--8--7--5--5-5-5-5-5-5-9-9-9--8--7--5--5-5-5-5--7--|
E|-7-7-7-----------------------7-7-7-----------------3--5--|

Guitars 1 & 2:
e|------------------------------------------------------------------|
B|------------------------------------------------------------------|
G|-------10--9--7--7-7-7-7-7-7-------10--9--7--7-7-7----------------|
D|-9-9-9-10--9--7--7-7-7-7-7-7-9-9-9-10--9--7--7-7-7-5--7--9--------|
A|-9-9-9--8--7--5--5-5-5-5-5-5-9-9-9--8--7--5--5-5-5-5--7--9--------|
E|-7-7-7-----------------------7-7-7-----------------3--5--7--------|


     ------------------
#12 | Back In The Days | 12#
     ------------------


e|--------------------------------------------------------------|
B|--------------------------------------------------------------|
G|-7-7----7-7----5-------8--------7-7----7-7----5-------8-------|
D|-7-7----7-7----5-5--5--8-7--7---7-7----7-7----5-5--5--8-7--7--|
A|-5-5----5-5----3-5--5--6-7--7---5-5----5-5----3-5--5--6-7--7--|
E|-----------------3--3----5--5-------------------3--3----5--5--|

e|--------------------------------------------------------------|
B|--------------------------------------------------------------|
G|-7-7-7-7-5------8-8-8-8---6-----7-7-7-7-5------8-8-8-8---6----|
D|-7-7-7-7-5-5----8-8-8-8-7-6-----7-7-7-7-5-5----8-8-8-8-7-6----|
A|-5-5-5-5-3-5----6-6-6-6-7-4-----5-5-5-5-3-5----6-6-6-6-7-4----|
E|-----------3------------5-----------------3------------5------|

e|--------------------------------------------------------------|
B|--------------------------------------------------------------|
G|-7-7----7-7----5-------8--------7-7----7-7----5-------8-------|
D|-7-7----7-7----5-5--5--8-7--7---7-7----7-7----5-5--5--8-7--7--|
A|-5-5----5-5----3-5--5--6-7--7---5-5----5-5----3-5--5--6-7--7--|
E|-----------------3--3----5--5-------------------3--3----5--5--|

e|------------------------------------------------------------------------------------|
B|------------------------------------------------------------------------------------|
G|-11-11-11-11-11-11-11-11-11-11-11-11-11-11-11-11-11-11-11-11-11-11-11-11-11\--------|
D|-11-11-11-11-11-11-11-11-11-11-11-11-11-11-11-11-11-11-11-11-11-11-11-11-11\--------|
A|--9--9--9--9--9--9--9--9--9--9--9--9--9--9--9--9--9--9--9--9--9--9--9--9--9\--------|
E|------------------------------------------------------------------------------------|

e|------------------------------------------------------------------------------------|
B|------------------------------------------------------------------------------------|
G|-7-7----7-7----5-------8--------7-7----7-7----5-------8-------7-7--------7-7--------|
D|-7-7----7-7----5-5--5--8-7--7---7-7----7-7----5-5--5--8-7--7--7-7--------7-7--------|
A|-5-5----5-5----3-5--5--6-7--7---5-5----5-5----3-5--5--6-7--7--5-5--------5-5--------|
E|-----------------3--3----5--5-------------------3--3----5--5------------------------|


     ---------------------
#13 | Relatives Got Nerve | 13#
     ---------------------


e|----------------------|     e|--------------|
B|----------------------|     B|--------------|
G|------7-----8-8--6-6--|     G|-4--6--7-6----|
D|-5----7-7-7-8-8--6-6--|     D|-4--6--7-6----|
A|-5----5-7-7-6-6--4-4--|     A|-2--4--5-4----|
E|-3------5-5-----------| x4  E|--------------| x4

e|----------------------|     e|--------------|
B|----------------------|     B|--------------|
G|------7-----8-8--6-6--|     G|-4--6--7-6----|
D|-5----7-7-7-8-8--6-6--|     D|-4--6--7-6----|
A|-5----5-7-7-6-6--4-4--|     A|-2--4--5-4----|
E|-3------5-5-----------| x4  E|--------------| x4

e|---------------------------------|
B|---------------------------------|
G|-7-7-7-7-7-7-7-7-7-7-7-7-7-7-7-7-|
D|-7-7-7-7-7-7-7-7-7-7-7-7-7-7-7-7-|
A|-5-5-5-5-5-5-5-5-5-5-5-5-5-5-5-5-|
E|---------------------------------|

e|----------------------------------------------|
B|----------------------------------------------|
G|------7-----8-8--6-6-------7-----8-8--6-6-----|
D|-5----7-7-7-8-8--6-6--5----7-7-7-8-8--6-6--5--|
A|-5----5-7-7-6-6--4-4--5----5-7-7-6-6--4-4--5--|
E|-3------5-5-----------3------5-5-----------3--|


     -----------
#14 | Cheap Art | 14#
     -----------


e|-----------------------------------------------------------|
B|-----------------------------------------------------------|
G|-9\----9\----9\---------------------9\----9\----9\---------|
D|-9\----9\----9\----8-8-8-8-8--------9\----9\----9\----8----|
A|-7\----7\----7\----8-8-8-8-8--------7\----7\----7\----8----|
E|-------------------6-6-6-6-6--------------------------6----|


     ------------
#15 | Limp Wrist | 15#
     ------------


Guitar 1:
e|------------------------------|
B|------------------------------|
G|--------7-7-7-7-------8--8-8--|
D|-5--5-5-7-7-7-7-7-7-7-8--8-8--|
A|-5--5-5-5-5-5-5-7-7-7-6--6-6--|
E|-3--3-3---------5-5-5---------|

Guitar 1:
e|------------------------------|
B|------------------------------|
G|--------7-7-7-7-------8--8-8--|
D|-5--5-5-7-7-7-7-7-7-7-8--8-8--|
A|-5--5-5-5-5-5-5-7-7-7-6--6-6--|
E|-3--3-3---------5-5-5---------|
Guitar 2:
e|------------------------------|
B|------------------------------|
G|------------------------------|
D|-5----------------------------|
A|-5----------------------------|
E|-3----------------------------|

Guitars 1 & 2:
e|------------------------------|
B|------------------------------|
G|--------7-7-7-7-------8--8-8--|
D|-5--5-5-7-7-7-7-7-7-7-8--8-8--|
A|-5--5-5-5-5-5-5-7-7-7-6--6-6--|
E|-3--3-3---------5-5-5---------| x4

Guitars 1 & 2:
e|--------------------------------------------------------|
B|--------------------------------------------------------|
G|-------6--6-6--6-6-6--6-6-6--------6--6-6-4--4-4--4--4--|
D|-5-5-5-6--6-6--6-6-6--6-6-6--5-5-5-6--6-6-4--4-4--4--4--|
A|-5-5-5-4--4-4--4-4-4--4-4-4--5-5-5-4--4-4-2--2-2--2--2--|
E|-3-3-3-----------------------3-3-3----------------------| x2

Guitars 1 & 2:
e|------------------------------|
B|------------------------------|
G|--------7-7-7-7-------8--8-8--|
D|-5--5-5-7-7-7-7-7-7-7-8--8-8--|
A|-5--5-5-5-5-5-5-7-7-7-6--6-6--|
E|-3--3-3---------5-5-5---------| x4

Guitars 1 & 2:
e|--------------------------------------------------------|
B|--------------------------------------------------------|
G|-------6--6-6--6-6-6--6-6-6--------6--6-6-4--4-4--4--4--|
D|-5-5-5-6--6-6--6-6-6--6-6-6--5-5-5-6--6-6-4--4-4--4--4--|
A|-5-5-5-4--4-4--4-4-4--4-4-4--5-5-5-4--4-4-2--2-2--2--2--|
E|-3-3-3-----------------------3-3-3----------------------| x2

Guitars 1 & 2:
e|------------------------------------------------|
B|------------------------------------------------|
G|--------------------------------8-7--8----------|
D|-5--5--X-X-X-X-5--5--X-X-X-X-5--8-7--8-8-7-5----|
A|-5--5--X-X-X-X-5--5--X-X-X-X-5--6-5--6-8-7-5----|
E|-3--3--X-X-X-X-3--3--X-X-X-X-3---------6-5-3----|


     --------------------------
#16 | Limp Wrist vs. Dr. Laura | 16#
     --------------------------


Guitars 1 & 2:
e|-------------------------------------------------|
B|-------------------------------------------------|
G|-3--3--3-----------6--6--6--6--6--6--6--6--6--6--|
D|-3--3--3--3--3--3--6--6--6--6--6--6--6--6--6--6--|
A|-1--1--1--3--3--3--4--4--4--4--4--4--4--4--4--4--|
E|----------1--1--1--------------------------------| x4

Guitars 1 & 2:
e|-------------------------------------------------|
B|-------------------------------------------------|
G|-3--3--3-----------6--6--6-----------------------|
D|-3--3--3--3--3--3--6--6--6--6--6--6--6--6--6--6--|
A|-1--1--1--3--3--3--4--4--4--6--6--6--6--6--6--6--|
E|----------1--1--1-----------4--4--4--4--4--4--4--| x4

Guitar 1:                         Guitars 1 & 2:
e|--------------------------|     e|--------------------------|
B|--------------------------|     B|--------------------------|
G|-3--3--3--3--6------------|     G|-3--3--3--3--6------------|
D|-3--3--3--3--6--5-5--5-5--|     D|-3--3--3--3--6--5-5--5-5--|
A|-1--1--1--1--4--5-5--5-5--|     A|-1--1--1--1--4--5-5--5-5--|
E|----------------3-3--3-3--| x2  E|----------------3-3--3-3--| x4

Guitars 1 & 2:
e|-------------------------------------------------------------------|
B|-------------------------------------------------------------------|
G|------------6----6--6--6-3-------------------6----6--6--6-3--------|
D|-5--5--5--5-6----6--6--6-3--------5--5--5--5-6----6--6--6-3--------|
A|-5--5--5--5-4----4--4--4-1--------5--5--5--5-4----4--4--4-1--------|
E|-3--3--3--3-----------------------3--3--3--3-----------------------|

Guitars 1 & 2:
e|--------------------------|
B|--------------------------|
G|-3--3--3--3--6------------|
D|-3--3--3--3--6--5-5--5-5--|
A|-1--1--1--1--4--5-5--5-5--|
E|----------------3-3--3-3--| x4

Guitars 1 & 2:
e|------------------------------------------------------------------------|
B|------------------------------------------------------------------------|
G|------------6----6--6--6-3-------------------6----6--6--6-3--------3----|
D|-5--5--5--5-6----6--6--6-3--------5--5--5--5-6----6--6--6-3--------3----|
A|-5--5--5--5-4----4--4--4-1--------5--5--5--5-4----4--4--4-1--------1----|
E|-3--3--3--3-----------------------3--3--3--3----------------------------|


     --------------------------------
#17 | This Ain't No Cross On My Hand | 17#
     --------------------------------


e|----------------------------|
B|----------------------------|
G|-------12--------9--11--12--|
D|-11----12--11----9--11--12--|
A|-11----10--11----7---9--10--|
E|--9---------9---------------|

e|---------------------------------------|
B|---------------------------------------|
G|---------------------12-12--12-9-9---9-|
D|-11-11--11-11-11--11-12-12--12-9-9---9-|
A|-11-11--11-11-11--11-10-10--10-7-7---7-|
E|--9--9---9--9--9---9-------------------| x4

e|-------------------------------------------|
B|-------------------------------------------|
G|-----------9----12--------------9----12----|
D|-11--------9----12----11--------9----12----|
A|-11--------7----10----11--------7----10----|
E|--9--------------------9-------------------|

e|---------------------------------------|
B|---------------------------------------|
G|---------------------12-12--12-9-9---9-|
D|-11-11--11-11-11--11-12-12--12-9-9---9-|
A|-11-11--11-11-11--11-10-10--10-7-7---7-|
E|--9--9---9--9--9---9-------------------| x4

e|-------------------------------------------|
B|-------------------------------------------|
G|-----------9----12--------------9----12----|
D|-11--------9----12----11--------9----12----|
A|-11--------7----10----11--------7----10----|
E|--9--------------------9-------------------|

e|-------------------------------------------------------------------|
B|-------------------------------------------------------------------|
G|---------------------9-9--9-9-9--9-12-12--12-12-12--12-------------|
D|-11-11--11-11-11--11-9-9--9-9-9--9-12-12--12-12-12--12-9-9--8-9-9--|
A|-11-11--11-11-11--11-7-7--7-7-7--7-10-10--10-10-10--10-9-9--8-9-9--|
E|--9--9---9--9--9---9-----------------------------------7-7--6-7-7--| x2

e|----------------------------|
B|----------------------------|
G|-------12--------9--11--12--|
D|-11----12--11----9--11--12--|
A|-11----10--11----7---9--10--|
E|--9---------9---------------|


     -------------
#18 | Brotherhood | 18#
     -------------


Guitars 1 & 2:
e|---------------------------|
B|---------------------------|
G|-9-9--9-9-9----------------|
D|-9-9--9-9-9--7-7--7-10-10--|
A|-7-7--7-7-7--7-7--7-10-10--|
E|-------------5-5--5--8--8--| x4

Guitars 1 & 2:
e|-------------------------------------------------------|
B|-------------------------------------------------------|
G|--------9-9--9-10-10--10-10-10--------9-9--9-10-9-7----|
D|-7-7--7-9-9--9-10-10--10-10-10-7-7--7-9-9--9-10-9-7----|
A|-7-7--7-7-7--7--8--8---8--8--8-7-7--7-7-7--7--8-7-5----|
E|-5-5--5------------------------5-5--5------------------| x2
Overdubbed Fill:
e|-------------------------------------------------------|
B|----------------7--------------------------------------|
G|----------------9^-------------------------------------|
D|-------------------------------------------------------|
A|-------------------------------------------------------|
E|-------------------------------------------------------| x2

Guitars 1 & 2:
e|---------------------------|
B|---------------------------|
G|-9-9--9-9-9----------------|
D|-9-9--9-9-9--7-7--7-10-10--|
A|-7-7--7-7-7--7-7--7-10-10--|
E|-------------5-5--5--8--8--| x4

Guitars 1 & 2:
e|-------------------------------------------------------|
B|-------------------------------------------------------|
G|--------9-9--9-10-10--10-10-10--------9-9--9-10-9-7----|
D|-7-7--7-9-9--9-10-10--10-10-10-7-7--7-9-9--9-10-9-7----|
A|-7-7--7-7-7--7--8--8---8--8--8-7-7--7-7-7--7--8-7-5----|
E|-5-5--5------------------------5-5--5------------------| x2
Overdubbed Fill:
e|-------------------------------------------------------|
B|----------------7--------------------------------------|
G|----------------9^-------------------------------------|
D|-------------------------------------------------------|
A|-------------------------------------------------------|
E|-------------------------------------------------------| x2

Guitars 1 & 2:
e|---------------------------------------------------------------------------|
B|---------------------------------------------------------------------------|
G|-7-------------------------------------------------------------------------|
D|-7-------------------------------------------------------------------------|
A|-5-------------------------------------------------------------------------|
E|---------------------------------------------------------------------------|

Guitars 1 & 2:
e|------------------|  e|--------------------------------------|
B|------------------|  B|--------------------------------------|
G|-6-6-6-6-6-6-6----|  G|-----9-6--6-6-6-6-6-6-6-6-6-6-6-6-6-6-|
D|-6-6-6-6-6-6-6----|  D|-7-7-9-6--6-6-6-6-6-6-6-6-6-6-6-6-6-6-|
A|-4-4-4-4-4-4-4----|  A|-7-7-7-4--4-4-4-4-4-4-4-4-4-4-4-4-4-4-|
E|------------------|  E|-5-5----------------------------------| x4

Guitars 1 & 2:
e|----------------------------------------|
B|----------------------------------------|
G|-----9-6--------------------------------|
D|-7-7-9-6--------------------------------|
A|-7-7-7-4--------------------------------|
E|-5-5------------------------------------|

Guitars 1 & 2:
e|-------------------------------------------------|
B|-------------------------------------------------|
G|-------------10-10--10-10-10--7-7--7-7-7--10-10--|
D|-7-7--7-7-7--10-10--10-10-10--7-7--7-7-7--10-10--|
A|-7-7--7-7-7---8--8---8--8--8--5-5--5-5-5---8--8--|
E|-5-5--5-5-5--------------------------------------| x2

Guitars 1 & 2:
e|------------------------------------------------|
B|------------------------------------------------|
G|-------9-9-9-------9-9-9-------9-9-9------9-9-9-|
D|-7--7--7-7-7-7--7--7-7-7-7--7--7-7-7-7--7-7-7-7-|
A|-7--7--------7--7--------7--7--------7--7-------|
E|-5--5--------5--5--------5--5--------5--5-------|

Guitars 1 & 2:
e|-------------------------------------------------|
B|-------------------------------------------------|
G|-------------10-10--10-10-10--7-7--7-7-7--10-10--|
D|-7-7--7-7-7--10-10--10-10-10--7-7--7-7-7--10-10--|
A|-7-7--7-7-7---8--8---8--8--8--5-5--5-5-5---8--8--|
E|-5-5--5-5-5--------------------------------------| x2

Guitars 1 & 2:
e|-----------------------------------------------------|
B|-----------------------------------------------------|
G|-------9-9-9-------9-9-9-------9-9-9------9-9-9------|
D|-7--7--7-7-7-7--7--7-7-7-7--7--7-7-7-7--7-7-7-7-7----|
A|-7--7--------7--7--------7--7--------7--7-------7----|
E|-5--5--------5--5--------5--5--------5--5-------5----|


     --------
#19 | Thanks | 19#
     --------


Guitar 1:
e|---------------------------------|
B|---------------------------------|
G|---------------------------------|
D|-11--11--11--11--11--11--11--11--|
A|-11--11--11--11--11--11--11--11--|
E|--9---9---9---9---9---9---9---9--| x2
Guitar 2
e|-------------------------------------------------|
B|-4--4--4--4--4--4--4--4--4--4--4--4--4--4--4--4--|
G|-6^-6*-6*-6*-6*-6*-6*-6*-6*-6*-6*-6*-6*-6*-6*-6*-|
D|-------------------------------------------------|
A|-------------------------------------------------|
E|-------------------------------------------------| x2

Guitars 1 & 2:
e|-----------------------------------|
B|-----------------------------------|
G|----------------------------9-9--9-|
D|-11-11--11-11-11--11-7-7--7-9-9--9-|
A|-11-11--11-11-11--11-7-7--7-7-7--7-|
E|--9--9---9--9--9---9-5-5--5--------| x4

Guitars 1 & 2:
e|-----------------------------------------------------------------------------|
B|-----------------------------------------------------------------------------|
G|-11-11--11-11-11-----------------------11-11--11-11-11--------------12-12----|
D|-11-11--11-11-11----11-11--11-11-11----11-11--11-11-11----11-11--11-12-12----|
A|--9--9---9--9--9----11-11--11-11-11-----9--9---9--9--9----11-11--11-10-10----|
E|---------------------9--9---9--9--9------------------------9--9---9----------| x2

Guitars 1 & 2:
e|-----------------------------------|
B|-----------------------------------|
G|----------------------------9-9--9-|
D|-11-11--11-11-11--11-7-7--7-9-9--9-|
A|-11-11--11-11-11--11-7-7--7-7-7--7-|
E|--9--9---9--9--9---9-5-5--5--------| x4

Guitars 1 & 2:
e|-----------------------------------------------------------------------------|
B|-----------------------------------------------------------------------------|
G|-11-11--11-11-11-----------------------11-11--11-11-11--------------12-12----|
D|-11-11--11-11-11----11-11--11-11-11----11-11--11-11-11----11-11--11-12-12----|
A|--9--9---9--9--9----11-11--11-11-11-----9--9---9--9--9----11-11--11-10-10----|
E|---------------------9--9---9--9--9------------------------9--9---9----------| x2

Guitars 1 & 2:
e|-------------------------------------------------------------------------------------------|
B|-------------------------------------------------------------------------------------------|
G|-------------------------------9----12--11--------------------------------9----12--11------|
D|-11--------11--------11--------9----12--11--11--------11--------11--------9----12--11--11--|
A|-11--------11--------11--------7----10---9--11--------11--------11--------7----10---9--11--|
E|--9---------9---------9----------------------9---------9---------9----------------------9--|


     -----------------------------------
#20 | We Started This Band To Get Dates | 20#
     -----------------------------------


Guitars 1 & 2:
e|-------------------------------------------------------------------|
B|-------------------------------------------------------------------|
G|-9--9--9--9-9-----9--9-9-9-9---------------------------------------|
D|-9--9--9--9-9-----9--9-9-9-9-10--10--10--10-10-----10--10-10-10-10-|
A|-7--7--7--7-7-----7--7-7-7-7-10--10--10--10-10-----10--10-10-10-10-|
E|------------------------------8---8---8---8--8------8---8--8--8--8-|

Guitars 1 & 2:
e|-----------------------------------------------------------|
B|-----------------------------------------------------------|
G|---------------------------------------------12--12--------|
D|-9--9--9--9-9-----9--9-9-9-9-9-9-9-9-9-9-9-9-12--12--12-12-|
A|-9--9--9--9-9-----9--9-9-9-9-9-9-9-9-9-9-9-9-10--10--12-12-|
E|-7--7--7--7-7-----7--7-7-7-7-7-7-7-7-7-7-7-7---------10-10-|

Guitars 1 & 2:
e|---------------------------------------------------------------------------------|
B|---------------------------------------------------------------------------------|
G|-9-9-9-9-9-9-9-9-9-9-9-9-9-9-9-9-------------------------------------------------|
D|-9-9-9-9-9-9-9-9-9-9-9-9-9-9-9-9-10-10-10-10-10-10-10-10-10-10-10-10-10-10-10-10-|
A|-7-7-7-7-7-7-7-7-7-7-7-7-7-7-7-7-10-10-10-10-10-10-10-10-10-10-10-10-10-10-10-10-|
E|----------------------------------8--8--8--8--8--8--8--8--8--8--8--8--8--8--8--8-|

Guitars 1 & 2:
e|---------------------------------------------------------------|
B|---------------------------------------------------------------|
G|-------------------------------------------------12--12--------|
D|-9-9-9-9-9-9-9-9-9-9-9-9-9-9-9-9-9-9-9-9-9-9-9-9-12--12--12-12-|
A|-9-9-9-9-9-9-9-9-9-9-9-9-9-9-9-9-9-9-9-9-9-9-9-9-10--10--12-12-|
E|-7-7-7-7-7-7-7-7-7-7-7-7-7-7-7-7-7-7-7-7-7-7-7-7---------10-10-|

Guitars 1 & 2:
e|---------------------------------------------------------------------------------|
B|---------------------------------------------------------------------------------|
G|-9-9-9-9-9-9-9-9-9-9-9-9-9-9-9-9-------------------------------------------------|
D|-9-9-9-9-9-9-9-9-9-9-9-9-9-9-9-9-10-10-10-10-10-10-10-10-10-10-10-10-10-10-10-10-|
A|-7-7-7-7-7-7-7-7-7-7-7-7-7-7-7-7-10-10-10-10-10-10-10-10-10-10-10-10-10-10-10-10-|
E|----------------------------------8--8--8--8--8--8--8--8--8--8--8--8--8--8--8--8-|

Guitars 1 & 2:
e|---------------------------------------------------------------|
B|---------------------------------------------------------------|
G|-------------------------------------------------12--12--------|
D|-9-9-9-9-9-9-9-9-9-9-9-9-9-9-9-9-9-9-9-9-9-9-9-9-12--12--12-12-|
A|-9-9-9-9-9-9-9-9-9-9-9-9-9-9-9-9-9-9-9-9-9-9-9-9-10--10--12-12-|
E|-7-7-7-7-7-7-7-7-7-7-7-7-7-7-7-7-7-7-7-7-7-7-7-7---------10-10-|

Guitars 1 & 2:
e|---------------------------------------------------------------------------------|
B|---------------------------------------------------------------------------------|
G|-9-9-9-9-9-9-9-9-9-9-9-9-9-9-9-9-------------------------------------------------|
D|-9-9-9-9-9-9-9-9-9-9-9-9-9-9-9-9-10-10-10-10-10-10-10-10-10-10-10-10-10-10-10-10-|
A|-7-7-7-7-7-7-7-7-7-7-7-7-7-7-7-7-10-10-10-10-10-10-10-10-10-10-10-10-10-10-10-10-|
E|----------------------------------8--8--8--8--8--8--8--8--8--8--8--8--8--8--8--8-|

Guitars 1 & 2:
e|---------------------------------------------------------------|
B|---------------------------------------------------------------|
G|-------------------------------------------------12--12--------|
D|-9-9-9-9-9-9-9-9-9-9-9-9-9-9-9-9-9-9-9-9-9-9-9-9-12--12--12-12-|
A|-9-9-9-9-9-9-9-9-9-9-9-9-9-9-9-9-9-9-9-9-9-9-9-9-10--10--12-12-|
E|-7-7-7-7-7-7-7-7-7-7-7-7-7-7-7-7-7-7-7-7-7-7-7-7---------10-10-|

Guitars 1 & 2:
e|-------------------------------------------------------------|
B|-------------------------------------------------------------|
G|-9-9-9-9-9-9-9-9-12--12--------9-9-9-9-9-9-9-9-12--12--------|
D|-9-9-9-9-9-9-9-9-12--12--12-12-9-9-9-9-9-9-9-9-12--12--12-12-|
A|-7-7-7-7-7-7-7-7-10--10--12-12-7-7-7-7-7-7-7-7-10--10--12-12-|
E|-------------------------10-10-------------------------10-10-|
Guitar Fill:
e|-------------------------------------------------------------|
B|---------0-----------------------------0---------------------|
G|---------3^----------------------------3^--------------------|
D|-------------------------------------------------------------|
A|-------------------------------------------------------------|
E|-------------------------------------------------------------|

Guitars 1 & 2:
e|----------------------------------------------------------------|
B|----------------------------------------------------------------|
G|-9-9-9-9-9-9-9-9-12--12--------9--------------------------------|
D|-9-9-9-9-9-9-9-9-12--12--12-12-9--------------------------------|
A|-7-7-7-7-7-7-7-7-10--10--12-12-7--------------------------------|
E|-------------------------10-10----------------------------------|
Guitar Fill:
e|----------------------------------------------------------------|
B|---------0------------------------------------------------------|
G|---------3^-----------------------------------------------------|
D|----------------------------------------------------------------|
A|----------------------------------------------------------------|
E|----------------------------------------------------------------|

Guitars 1 & 2:                 Guitars 1 & 2:
e|-----------------------|     e|--------------------------|
B|-----------------------|     B|--------------------------|
G|----10-----------------|     G|------10------------------|
D|-9--10--9--12--10--10--|     D|-9--9-10--9--12-12--10----|
A|-9---8--9--12--10--10--|     A|-9--9--8--9--12-12--10----|
E|-7------7--10---8---8--| x4  E|-7--7-----7--10-10---8----| x4

e|------------------------------------------------------|
B|------------------------------------------------------|
G|-12--12--12-----9--------12--12--12-----9--------9----|
D|-12--12--12--12-9--------12--12--12--12-9--------9----|
A|-10--10--10--12-7--------10--10--10--12-7--------7----|
E|-------------10----------------------10---------------|


     -------------
#21 | OD'd On Pop | 21#
     -------------


e|-----------------|  e|---------------------|
B|-----------------|  B|---------------------|
G|-4-----7-7--8-7--|  G|-4-4-------7-7--8-7--|
D|-4--5--7-7--8-7--|  D|-4-4--5-5--7-7--8-7--|
A|-2--5--5-5--6-5--|  A|-2-2--5-5--5-5--6-5--|
E|----3------------|  E|------3-3------------| x4

e|------------------------------------------------|
B|------------------------------------------------|
G|-7--------8--8--5-5-5-5-5-5-5-5-5-5-5-5-5-5-5-5-|
D|-7--------8--8--5-5-5-5-5-5-5-5-5-5-5-5-5-5-5-5-|
A|-5--------6--6--3-3-3-3-3-3-3-3-3-3-3-3-3-3-3-3-|
E|------------------------------------------------| x2

e|---------------------|
B|---------------------|
G|-4-4-------7-7--8-7--|
D|-4-4--5-5--7-7--8-7--|
A|-2-2--5-5--5-5--6-5--|
E|------3-3------------| x4

e|------------------------------------------------|
B|------------------------------------------------|
G|-7--------8--8--5-5-5-5-5-5-5-5-5-5-5-5-5-5-5-5-|
D|-7--------8--8--5-5-5-5-5-5-5-5-5-5-5-5-5-5-5-5-|
A|-5--------6--6--3-3-3-3-3-3-3-3-3-3-3-3-3-3-3-3-|
E|------------------------------------------------| x2

e|------------------------------------------------|
B|------------------------------------------------|
G|-7----7--7--7--7--7--7--7--7--7--7--7--7--7--7--|
D|-7----7--7--7--7--7--7--7--7--7--7--7--7--7--7--|
A|-5----5--5--5--5--5--5--5--5--5--5--5--5--5--5--|
E|------------------------------------------------| x2
       [X--X--X--X--X--X--X--X--X--X--X--X--X--X]

e|----------------------------------------------------------|
B|----------------------------------------------------------|
G|-4--------------------------------------------------------|
D|-4----5----7----7--7--7--7--7--7--7--7--7--7--7--7--7--7--|
A|-2----5----7----7--7--7--7--7--7--7--7--7--7--7--7--7--7--|
E|------3----5----5--5--5--5--5--5--5--5--5--5--5--5--5--5--|
                 [X--X--X--X--X--X--X--X--X--X--X--X--X--X]

e|------------------------------------------------|
B|------------------------------------------------|
G|------------------------------------------------|
D|-7----7--7--7--7--7--7--7--7--7--7--7--7--7--7--|
A|-7----7--7--7--7--7--7--7--7--7--7--7--7--7--7--|
E|-5----5--5--5--5--5--5--5--5--5--5--5--5--5--5--|
       [X--X--X--X--X--X--X--X--X--X--X--X--X--X]

e|----------------------------------------------------------|
B|----------------------------------------------------------|
G|-4--------------------------------------------------------|
D|-4----5----7----7--7--7--7--7--7--7--7--7--7--7--7--7--7--|
A|-2----5----7----7--7--7--7--7--7--7--7--7--7--7--7--7--7--|
E|------3----5----5--5--5--5--5--5--5--5--5--5--5--5--5--5--|
                 [X--X--X--X--X--X--X--X--X--X--X--X--X--X]

e|------------------------------------------------|
B|------------------------------------------------|
G|------------------------------------------------|
D|-7----7--7--7--7--7--7--7--7--7--7--7--7--7--7--|
A|-7----7--7--7--7--7--7--7--7--7--7--7--7--7--7--|
E|-5----5--5--5--5--5--5--5--5--5--5--5--5--5--5--|
       [X--X--X--X--X--X--X--X--X--X--X--X--X--X]

e|--------------------------------------------|
B|--------------------------------------------|
G|-4------------------------------------------|
D|-4----5----7--------------------------------|
A|-2----5----7--------------------------------|
E|------3----5--------------------------------|



     -------------------------
#22 | Give Me A Fuckin' Break | 22#
     -------------------------


Guitars 1 & 2:
e|-----------------------------|
B|-----------------------------|
G|-9-9-9----10-10-10-----7--7--|
D|-9-9-9-9--10-10-10-10--7--7--|
A|-7-7-7-9---8--8--8-10--5--5--|
E|-------7------------8--------| x4

Guitar 1:		      Guitar 1 & 2:
e|----------------------|     e|----------------------|
B|----------------------|     B|----------------------|
G|-7--7--7--7--4-X------|     G|-7--7--7--7--4-X------|
D|-7--7--7--7--4-X-3----|     D|-7--7--7--7--4-X-3----|
A|-5--5--5--5--2-X-3----|     A|-5--5--5--5--2-X-3----|
E|-----------------1----| x2  E|-----------------1----| x4

Guitars 1 & 2:
e|---------------------------------------------------------|
B|---------------------------------------------------------|
G|----------------4--4-4-4-4-4-4-----------------10--9--7--|
D|-3--3-3-3-3-3-3-4--4-4-4-4-4-4-3-3-3-3-3-3-3-3-10--9--7--|
A|-3--3-3-3-3-3-3-2--2-2-2-2-2-2-3-3-3-3-3-3-3-3--8--7--5--|
E|-1--1-1-1-1-1-1----------------1-1-1-1-1-1-1-1-----------| x2
Guitar Fill:
e|---------------------------------------------------------|
B|----------------7----------------------------------------|
G|----------------9^---------------------------------------|
D|---------------------------------------------------------|
A|---------------------------------------------------------|
E|---------------------------------------------------------| x2

Guitar 1 & 2:
e|----------------------|
B|----------------------|
G|-7--7--7--7--4-X------|
D|-7--7--7--7--4-X-3----|
A|-5--5--5--5--2-X-3----|
E|-----------------1----| x4

Guitars 1 & 2:
e|---------------------------------------------------------|
B|---------------------------------------------------------|
G|----------------4--4-4-4-4-4-4-----------------10--9--7--|
D|-3--3-3-3-3-3-3-4--4-4-4-4-4-4-3-3-3-3-3-3-3-3-10--9--7--|
A|-3--3-3-3-3-3-3-2--2-2-2-2-2-2-3-3-3-3-3-3-3-3--8--7--5--|
E|-1--1-1-1-1-1-1----------------1-1-1-1-1-1-1-1-----------|
Guitar Fill:
e|---------------------------------------------------------|
B|----------------7----------------------------------------|
G|----------------9^---------------------------------------|
D|---------------------------------------------------------|
A|---------------------------------------------------------|
E|---------------------------------------------------------|

Guitars 1 & 2:
e|------------------------------------------------------------------|
B|------------------------------------------------------------------|
G|----------------4--4-4-4-4-4-4-----------------10--9--7-----------|
D|-3--3-3-3-3-3-3-4--4-4-4-4-4-4-3-3-3-3-3-3-3-3-10--9--7--9--------|
A|-3--3-3-3-3-3-3-2--2-2-2-2-2-2-3-3-3-3-3-3-3-3--8--7--5--9--------|
E|-1--1-1-1-1-1-1----------------1-1-1-1-1-1-1-1-----------7--------|
Guitar Fill:
e|------------------------------------------------------------------|
B|----------------7-------------------------------------------------|
G|----------------9^------------------------------------------------|
D|------------------------------------------------------------------|
A|------------------------------------------------------------------|
E|------------------------------------------------------------------|


     ------------
#23 | Man To Man | 23#
     ------------


Guitar 1:
e|----------------------------------------------------------------------------------------|
B|----------------------------------------------------------------------------------------|
G|-------9--9-9-9-9-----9-9-9-9-------9--9-9-9-9-----9-9-9-9-8-8-8-5--5-5-5-5-5-5-5-5-5-5-|
D|-7-7-7-9--9-9-9-9-7-7-9-9-9-9-7-7-7-9--9-9-9-9-7-7-9-9-9-9-8-8-8-5--5-5-5-5-5-5-5-5-5-5-|
A|-7-7-7-7--7-7-7-7-7-7-7-7-7-7-7-7-7-7--7-7-7-7-7-7-7-7-7-7-6-6-6-3--3-3-3-3-3-3-3-3-3-3-|
E|-5-5-5------------5-5---------5-5-5------------5-5--------------------------------------| x3

Guitar 1:
e|------------------------------------------------------------------------------|
B|------------------------------------------------------------------------------|
G|-------9--9-9-9-9-----9-9-9-9-------9--9-9-9-9-----9-9-9-9-8-8-8-5------------|
D|-7-7-7-9--9-9-9-9-7-7-9-9-9-9-7-7-7-9--9-9-9-9-7-7-9-9-9-9-8-8-8-5------------|
A|-7-7-7-7--7-7-7-7-7-7-7-7-7-7-7-7-7-7--7-7-7-7-7-7-7-7-7-7-6-6-6-3------------|
E|-5-5-5------------5-5---------5-5-5------------5-5----------------------------| 

Guitar 1:                            Guitar 1:
e|-----------------------------|     e|------------------------------|
B|-----------------------------|     B|------------------------------|
G|-------5----------5----7--8--|     G|------------------------------|
D|-5-5-5-5----5-5-5-5----7--8--|     D|-5--5-5-5-5-7--3--3-3-3-3-3-3-|
A|-3-3-3-3----3-3-3-3----5--6--|     A|-5--5-5-5-5-7--3--3-3-3-3-3-3-|
E|-3-3-3-3----3-3-3-3----------| x3  E|-3--3-3-3-3-5--1--1-1-1-1-1-1-|
  [X-X-X]    [X-X-X]

Guitar 1:
e|-----------------------------|
B|-----------------------------|
G|-------5----------5----7--8--|
D|-5-5-5-5----5-5-5-5----7--8--|
A|-3-3-3-3----3-3-3-3----5--6--|
E|-3-3-3-3----3-3-3-3----------| x3
  [X-X-X]    [X-X-X]

Guitar 1:
e|---------------------------------------------------|
B|---------------------------------------------------|
G|---------------------------------------------------|
D|-5--5-5-5-5-7--3--3-3-3-3-5-2--------2-2-2-2-2-2-2-|
A|-5--5-5-5-5-7--3--3-3-3-3-5-2--------2-2-2-2-2-2-2-|
E|-3--3-3-3-3-5--1--1-1-1-1-3-0--------0-0-0-0-0-0-0-| x4
Guitar Fill:
e|---------------------------------------------------|
B|---------------------------------------------------|
G|-------------------------------------5-------------|
D|-------------------------------------7^------------|
A|---------------------------------------------------|
E|---------------------------------------------------| x4

Guitar 1:
e|-----------------------------|
B|-----------------------------|
G|-------5----------5----7--8--|
D|-5-5-5-5----5-5-5-5----7--8--|
A|-3-3-3-3----3-3-3-3----5--6--|
E|-3-3-3-3----3-3-3-3----------| x3
  [X-X-X]    [X-X-X]


     -----------
#24 | No Choice | 24#
     -----------


e|------------------|  e|--------------------|
B|------------------|  B|--------------------|
G|------------------|  G|--------------------|
D|-2----------------|  D|-----7-7-9-9/10--10-|
A|-2----------------|  A|-7-7-5-5-7-7/-8---8-|
E|-0----------------|  E|-5-5----------------| x8
                         [X-X-X-X-X]

e|---------------|     e|------------------|
B|---------------|     B|------------------|
G|-9-9-9-9-5-----|     G|-6-6--6-12-12--12-|
D|-9-9-9-9-5--7--|     D|-6-6--6-12-12--12-|
A|-7-7-7-7-3--7--|     A|-4-4--4-10-10--10-|
E|------------5--| x2  E|------------------| x2

e|---------------|     e|------------------|
B|---------------|     B|------------------|
G|-9-9-9-9-5-----|     G|-6-6--6-12-12--12-|
D|-9-9-9-9-5--7--|     D|-6-6--6-12-12--12-|
A|-7-7-7-7-3--7--|     A|-4-4--4-10-10--10-|
E|------------5--| x2  E|------------------| x2

e|------------------|  e|--------------------|
B|------------------|  B|--------------------|
G|------------------|  G|--------------------|
D|-2----------------|  D|-----7-7-9-9/10--10-|
A|-2----------------|  A|-7-7-5-5-7-7/-8---8-|
E|-0----------------|  E|-5-5----------------| x8
                         [X-X-X-X-X]

e|---------------|     e|------------------|
B|---------------|     B|------------------|
G|-9-9-9-9-5-----|     G|-6-6--6-12-12--12-|
D|-9-9-9-9-5--7--|     D|-6-6--6-12-12--12-|
A|-7-7-7-7-3--7--|     A|-4-4--4-10-10--10-|
E|------------5--| x2  E|------------------| x2

e|---------------|     e|------------------|
B|---------------|     B|------------------|
G|-9-9-9-9-5-----|     G|-6-6--6-12-12--12-|
D|-9-9-9-9-5--7--|     D|-6-6--6-12-12--12-|
A|-7-7-7-7-3--7--|     A|-4-4--4-10-10--10-|
E|------------5--| x2  E|------------------| x3

e|-----------------------------------|
B|-----------------------------------|
G|-6-6--6-6-6--6---------------------|
D|-6-6--6-6-6--6-2----------------2--|
A|-4-4--4-4-4--4-2----------------2--|
E|---------------0----------------0--|


     ------------------------
#25 | Twelve Years Of Church | 25#
     ------------------------


e|-------------------------------------------------------------------------------------------|
B|-------------------------------------------------------------------------------------------|
G|-8-8------6-6------8-8------6-6------9-9-9-9-9-9-9-9-9-9-9-9-9-9-9-9-----------------------|
D|-8-8-8----6-6-6----8-8-8----6-6-6----9-9-9-9-9-9-9-9-9-9-9-9-9-9-9-9-5--5----5--5--5----5--|
A|-6-6-8----4-4-6----6-6-8----4-4-6----7-7-7-7-7-7-7-7-7-7-7-7-7-7-7-7-5--5----5--5--5----5--|
E|-----6--------4--------6--------4------------------------------------3--3----3--3--3----3--| x4

e|-------------------------------------------------------|
B|-------------------------------------------------------|
G|-9-9-9-9-9-9-9-9-9-9-9-9-9-9-9-9-----------------------|
D|-9-9-9-9-9-9-9-9-9-9-9-9-9-9-9-9-5--5----5--5--5----5--|
A|-7-7-7-7-7-7-7-7-7-7-7-7-7-7-7-7-5--5----5--5--5----5--|
E|---------------------------------3--3----3--3--3----3--|

e|-------------------------------|     e|--------------------------------------------|
B|-------------------------------|     B|--------------------------------------------|
G|-7--7--7--7--7--7--7--8--------|     G|--------------------------------------------|
D|-7--7--7--7--7--7--7--8--------|     D|-8--8----8--8--8----8--5--5----5---5---5----|
A|-5--5--5--5--5--5--5--6--------|     A|-8--8----8--8--8----8--5--5----5---5---5----|
E|-------------------------------| x2  E|-6--6----6--6--6----6--3--3----3---3---3----|

e|-------------------------------|     e|--------------------------------------------|
B|-------------------------------|     B|--------------------------------------------|
G|-7--7--7--7--7--7--7--8--------|     G|--------------------------------------------|
D|-7--7--7--7--7--7--7--8--------|     D|-8--8----8--8--8----8--5--5----5---5---5----|
A|-5--5--5--5--5--5--5--6--------|     A|-8--8----8--8--8----8--5--5----5---5---5----|
E|-------------------------------| x2  E|-6--6----6--6--6----6--3--3----3---3---3----|

e|-------------------------------------------------------------------------------------------|
B|-------------------------------------------------------------------------------------------|
G|-8-8------6-6------8-8------6-6------9-9-9-9-9-9-9-9-9-9-9-9-9-9-9-9-----------------------|
D|-8-8-8----6-6-6----8-8-8----6-6-6----9-9-9-9-9-9-9-9-9-9-9-9-9-9-9-9-5--5----5--5--5----5--|
A|-6-6-8----4-4-6----6-6-8----4-4-6----7-7-7-7-7-7-7-7-7-7-7-7-7-7-7-7-5--5----5--5--5----5--|
E|-----6--------4--------6--------4------------------------------------3--3----3--3--3----3--| x4

e|-------------------------------------------------------|
B|-------------------------------------------------------|
G|-9-9-9-9-9-9-9-9-9-9-9-9-9-9-9-9-----------------------|
D|-9-9-9-9-9-9-9-9-9-9-9-9-9-9-9-9-5--5----5--5--5----5--|
A|-7-7-7-7-7-7-7-7-7-7-7-7-7-7-7-7-5--5----5--5--5----5--|
E|---------------------------------3--3----3--3--3----3--| x2

e|------------------------------------------|
B|------------------------------------------|
G|-9-9-9-9-9-9-9-9-9-9-9-9-9-9-9-9----------|
D|-9-9-9-9-9-9-9-9-9-9-9-9-9-9-9-9-5--------|
A|-7-7-7-7-7-7-7-7-7-7-7-7-7-7-7-7-5--------|
E|---------------------------------3--------|


     ----------------------------
#26 | A Message To The President | 26#
     ----------------------------


Guitar 1;		       Guitars 1 & 2:
e|-----------------------|     e|-----------------------|
B|-----------------------|     B|-----------------------|
G|-7-7----7--10-11----11-|     G|-7-7----7--10-11----11-|
D|-7-7----7--10-11----11-|     D|-7-7----7--10-11----11-|
A|-5-5----5---8--9-----9-|     A|-5-5----5---8--9-----9-|
E|-----------------------| x2  E|-----------------------| x4

Guitars 1 & 2:		      Guitars 1 & 2:
e|----------------------|     e|-----------------------|
B|----------------------|     B|-----------------------|
G|-10-10----10----------|     G|-7-7----7--10-11----11-|
D|-10-10----10--9-7-7-7-|     D|-7-7----7--10-11----11-|
A|--8--8-----8--9-7-7-7-|     A|-5-5----5---8--9-----9-|
E|--------------7-5-5-5-| x2  E|-----------------------| x4

Guitars 1 & 2:		      Guitars 1 & 2:
e|----------------------|     e|-----------------------|
B|----------------------|     B|-----------------------|
G|-10-10----10----------|     G|-7-7----7--10-11----11-|
D|-10-10----10--9-7-7-7-|     D|-7-7----7--10-11----11-|
A|--8--8-----8--9-7-7-7-|     A|-5-5----5---8--9-----9-|
E|--------------7-5-5-5-| x2  E|-----------------------| x3

Guitars 1 & 2:
e|----------------------------|
B|----------------------------|
G|-7-7----7--10-11----11-7----|
D|-7-7----7--10-11----11-7----|
A|-5-5----5---8--9-----9-5----|
E|----------------------------|


     -------------
#27 | Angry Queen | 27#
     -------------


Guitars 1 & 2:
e|--------------------------------------------------|
B|--------------------------------------------------|
G|-7--7--10--5--8--8--6-----7--7--10--5--8--8--6----|
D|-7--7--10--5--8--8--6--6--7--7--10--5--8--8--6----|
A|-5--5---8--3--6--6--4--6--5--5---8--3--6--6--4----|
E|-----------------------4--------------------------| x2

Guitars 1 & 2:
e|-------------------------------------------------------------------------|
B|-------------------------------------------------------------------------|
G|-7-7-7-7-7-7-7-7-10-10-10-10-10-10-10-10-6-6-6-6-6-6-6-6-6-6-6-6-6-6-6-6-|
D|-7-7-7-7-7-7-7-7-10-10-10-10-10-10-10-10-6-6-6-6-6-6-6-6-6-6-6-6-6-6-6-6-|
A|-5-5-5-5-5-5-5-5--8--8--8--8--8--8--8--8-4-4-4-4-4-4-4-4-4-4-4-4-4-4-4-4-|
E|-------------------------------------------------------------------------|

Guitars 1 & 2:
e|----------------------------------------------------------|
B|----------------------------------------------------------|
G|-7-7-7-7-7-7-7-7-10-10-10-10-10-10-10-10-6----------------|
D|-7-7-7-7-7-7-7-7-10-10-10-10-10-10-10-10-6----------------|
A|-5-5-5-5-5-5-5-5--8--8--8--8--8--8--8--8-4----------------|
E|----------------------------------------------------------|

Guitar 1:
e|--------------------------------------------------|
B|--------------------------------------------------|
G|-7--7--10--5--8--8--6-----7--7--10--5--8--8--6----|
D|-7--7--10--5--8--8--6--6--7--7--10--5--8--8--6----|
A|-5--5---8--3--6--6--4--6--5--5---8--3--6--6--4----|
E|-----------------------4--------------------------|

Guitars 1 & 2:
e|--------------------------------------------------------|
B|--------------------------------------------------------|
G|-7--7--10--5--8--8--6-----7--7--10--5--8--8--6--6--7----|
D|-7--7--10--5--8--8--6--6--7--7--10--5--8--8--6--6--7----|
A|-5--5---8--3--6--6--4--6--5--5---8--3--6--6--4--4--5----|
E|-----------------------4--------------------------------|


     ---------
#28 | The Ode | 28#
     ---------


Guitar 1:
e|---------------------------------|
B|---------------------------------|
G|-9-9-9-9-9-9-9-9-9-9-9-9-9-9-9-9-|
D|-9-9-9-9-9-9-9-9-9-9-9-9-9-9-9-9-|
A|-7-7-7-7-7-7-7-7-7-7-7-7-7-7-7-7-|
E|---------------------------------|

Guitars 1 & 2:
e|-------------------------------------------------------------------|
B|-------------------------------------------------------------------|
G|-9-9-9-9-9-9-9-9-----------------7-7-7-7-7-7-10-10-9-9-9-9-9-9-9-9-|
D|-9-9-9-9-9-9-9-9-8-8-8-8-8-8-8-8-7-7-7-7-7-7-10-10-9-9-9-9-9-9-9-9-|
A|-7-7-7-7-7-7-7-7-8-8-8-8-8-8-8-8-5-5-5-5-5-5--8--8-7-7-7-7-7-7-7-7-|
E|-----------------6-6-6-6-6-6-6-6-----------------------------------| x2

Guitars 1 & 2:
e|---------------------------------------------------------------------|
B|---------------------------------------------------------------------|
G|-10-9-9-9-9-9-9-9-10-9-9-9-9-9-9-9-10-9-9-9-9-9-9-9-10-9-9-9-9-9-9-9-|
D|-10-9-9-9-9-9-9-9-10-9-9-9-9-9-9-9-10-9-9-9-9-9-9-9-10-9-9-9-9-9-9-9-|
A|--8-7-7-7-7-7-7-7--8-7-7-7-7-7-7-7--8-7-7-7-7-7-7-7--8-7-7-7-7-7-7-7-|
E|---------------------------------------------------------------------|

Guitars 1 & 2:
e|-------------------------------------------------------------------|
B|-------------------------------------------------------------------|
G|-9-9-9-9-9-9-9-9-----------------7-7-7-7-7-7-10-10-9-9-9-9-9-9-9-9-|
D|-9-9-9-9-9-9-9-9-8-8-8-8-8-8-8-8-7-7-7-7-7-7-10-10-9-9-9-9-9-9-9-9-|
A|-7-7-7-7-7-7-7-7-8-8-8-8-8-8-8-8-5-5-5-5-5-5--8--8-7-7-7-7-7-7-7-7-|
E|-----------------6-6-6-6-6-6-6-6-----------------------------------| x2

Guitars 1 & 2:
e|---------------------------------------------------------------------|
B|---------------------------------------------------------------------|
G|-10-9-9-9-9-9-9-9-10-9-9-9-9-9-9-9-10-9-9-9-9-9-9-9-10-9-9-9-9-9-9-9-|
D|-10-9-9-9-9-9-9-9-10-9-9-9-9-9-9-9-10-9-9-9-9-9-9-9-10-9-9-9-9-9-9-9-|
A|--8-7-7-7-7-7-7-7--8-7-7-7-7-7-7-7--8-7-7-7-7-7-7-7--8-7-7-7-7-7-7-7-|
E|---------------------------------------------------------------------|

Guitars 1 & 2:			       Guitars 1 & 2:
e|-------------------------------|     e|-----------------|
B|-------------------------------|     B|-----------------|
G|-------------12--9-9-9-9-9-9-9-|     G|-------------12--|
D|-9--8--------12--9-9-9-9-9-9-9-|     D|-9--8--------12--|
A|-9--8--------10--7-7-7-7-7-7-7-|     A|-9--8--------10--|
E|-7--6--------------------------| x3  E|-7--6------------|

Guitars 1 & 2:
e|-----------------------------------------------------|
B|-----------------------------------------------------|
G|-9-9-9-9-9---9-9-9-9-----9-9-9-9-9---9-9-9-9-9-9-9-9-|
D|-9-9-9-9-9---9-9-9-9-----9-9-9-9-9---9-9-9-9-9-9-9-9-|
A|-7-7-7-7-7---7-7-7-7-7---7-7-7-7-7---7-7-7-7-7-7-7-7-|
E|-----------------------------------------------------|

Guitars 1 & 2:
e|-------------------------------------------------------------------|
B|-------------------------------------------------------------------|
G|-9-9-9-9-9-9-9-9-----------------7-7-7-7-7-7-10-10-9-9-9-9-9-9-9-9-|
D|-9-9-9-9-9-9-9-9-8-8-8-8-8-8-8-8-7-7-7-7-7-7-10-10-9-9-9-9-9-9-9-9-|
A|-7-7-7-7-7-7-7-7-8-8-8-8-8-8-8-8-5-5-5-5-5-5--8--8-7-7-7-7-7-7-7-7-|
E|-----------------6-6-6-6-6-6-6-6-----------------------------------| x2

Guitars 1 & 2:
e|------------------------------------------------------------------------|
B|------------------------------------------------------------------------|
G|-10-9-9-9-9-9-9-9-10-9-9-9-9-9-9-9-10-9-9-9-9-9-9-9-10-9-9-9-9-9-9-9----|
D|-10-9-9-9-9-9-9-9-10-9-9-9-9-9-9-9-10-9-9-9-9-9-9-9-10-9-9-9-9-9-9-9----|
A|--8-7-7-7-7-7-7-7--8-7-7-7-7-7-7-7--8-7-7-7-7-7-7-7--8-7-7-7-7-7-7-7----|
E|------------------------------------------------------------------------|


     ---------
#29 | Complex | 29#
     ---------


e|---------------------------------------------|
B|---------------------------------------------|
G|---------------------------------------------|
D|-9----9----------------9----9----------------|
A|-9----9----------------9----9----------------|
E|-7----7----------------7----7----------------| x2

There's a nice little guitar break then it comes back with:

e|---------------------------------------------------------------------|
B|-7---------------------------------7---------------------------------|
G|-9^--------------------------------9^--------------------------------|
D|---------------------------------------------------------------------|
A|---------------------------------------------------------------------|
E|---------------------------------------------------------------------|

e|-------------------------------------------------------------|
B|-------------------------------------------------------------|
G|---------------------12-12-12--------------------------9-9-9-|
D|-9----9--9--9--9--9--12-12-12-12----12--12--12--12--7--9-9-9-|
A|-9----9--9--9--9--9--10-10-10-12----12--12--12--12--7--7-7-7-|
E|-7----7--7--7--7--7-----------10----10--10--10--10--5--------| x4

e|---------------------------------------------|
B|---------------------------------------------|
G|---------------------------------------------|
D|-9----9----------------9----9----------------|
A|-9----9----------------9----9----------------|
E|-7----7----------------7----7----------------| x2

e|---------------------------------------------------------|
B|---------------------------------------------------------|
G|--------------7----7--7--7--------------10----10--10--10-|
D|-9----9--9--9-7----7--7--7-7----7--7--7-10----10--10--10-|
A|-9----9--9--9-5----5--5--5-7----7--7--7--8-----8---8---8-|
E|-7----7--7--7--------------5----5--5--5------------------| x4

e|-----------------------|
B|-----------------------|
G|-----------------------|
D|-9----9----------------|
A|-9----9----------------|
E|-7----7----------------|


     -----------------------
#30 | Does Your Daddy Know? | 30#
     -----------------------


e|--------------------------------|     e|--------------------------------|
B|--------------------------------|     B|--------------------------------|
G|--------------------------------|     G|-9-9--11-9------------12-12-12--|
D|-9-7--10-8--8-8-8-8-8-8-8-8-8-8-|     D|-9-9--11-9--11-11-11--12-12-12--|
A|-9-7--10-8--8-8-8-8-8-8-8-8-8-8-|     A|-7-7---9-7--11-11-11--10-10-10--|
E|-7-5---8-6--6-6-6-6-6-6-6-6-6-6-| x4  E|-------------9--9--9------------| x4
	     [X-X-X-X-X-X-X-X-X-X]

e|--------------------------------|     e|--------------------------------|
B|--------------------------------|     B|--------------------------------|
G|--------------------------------|     G|-9-9--11-9------------12-12-12--|
D|-9-7--10-8--8-8-8-8-8-8-8-8-8-8-|     D|-9-9--11-9--11-11-11--12-12-12--|
A|-9-7--10-8--8-8-8-8-8-8-8-8-8-8-|     A|-7-7---9-7--11-11-11--10-10-10--|
E|-7-5---8-6--6-6-6-6-6-6-6-6-6-6-| x4  E|-------------9--9--9------------| x4
	     [X-X-X-X-X-X-X-X-X-X]

e|-------------------------------------------------------------|
B|-------------------------------------------------------------|
G|-------------------------------------------------------------|
D|-7--7-7-7-7-7-7-7--7-7-7-7-7-7-7--7-7-7-7-7-7-7--7-7-7-7-7-7-|
A|-7--7-7-7-7-7-7-7--7-7-7-7-7-7-7--7-7-7-7-7-7-7--7-7-7-7-7-7-|
E|-5--5-5-5-5-5-5-5--5-5-5-5-5-5-5--5-5-5-5-5-5-5--5-5-5-5-5-5-|
     [X-X-X-X-X-X]  [X-X-X-X-X-X]  [X-X-X-X-X-X]  [X-X-X-X-X-X]

e|-------------------------------------|
B|-------------------------------------|
G|----------10-10-10----------12-12----|
D|-7--7-7-7-10-10-10-9--9-9-9-12-12-12-|
A|-7--7-7-7--8--8--8-9--9-9-9-10-10-12-|
E|-5--5-5-5----------7--7-7-7-------10-| x4

e|------------------------------------------|
B|------------------------------------------|
G|------------------------------------------|
D|-------------10-10---------12-12-12-------|
A|-7-7-7-7-7-7--8--8-9-9-9-9-10-10-10-12-12-|
E|-5-5-5-5-5-5-------7-7-7-7----------10-10-| x4

e|-------------------------------------|
B|-------------------------------------|
G|----------10-10-10----------12-12----|
D|-7--7-7-7-10-10-10-9--9-9-9-12-12-12-|
A|-7--7-7-7--8--8--8-9--9-9-9-10-10-12-|
E|-5--5-5-5----------7--7-7-7-------10-| x3

e|------------------------------------------|
B|------------------------------------------|
G|----------10-10-10----------12-12---------|
D|-7--7-7-7-10-10-10-9--9-9-9-12-12-12-9----|
A|-7--7-7-7--8--8--8-9--9-9-9-10-10-12-9----|
E|-5--5-5-5----------7--7-7-7-------10-7----|


| ^  bend the note up
| *  hold the note bend while picking
|[X] palm mute
| /  slide up
| \  slide down
| x  Mute note
===============================================================================
Добавлено: 17.11.2013
Другие материалы по этой песне:
  • Аккорды и текст

Страница создана 17.11.2013
http://primanota.ru/limp-wrist/thee-official-limp-wrist-discography-chords.htm
Привет, Гость.
Предлагаем пройти революционный курс по гитаре.
Подарок от PrimaNota.Ru, забирай!