PrimaNota.ru - самый крупный в мире бесплатный архив песенных текстов, аккордов, табулатур и нот


Limp Wrist - Relatives Got Nerve - таба, видео

Регистрация Запомнить меня
Войти через:  Facebook Google Twitter Vk Yandex Mail.ru

Limp Wrist - Relatives Got Nerve - таба, видео

Печатать
Просмотров: 51
-------------------------------------------------------------------------------
Relatives Got Nerve - Limp Wrist
Thee Official Limp Wrist Discography
-------------------------------------------------------------------------------
Tabbed by: axeslash
Email: holmzito@yahoo.com

Tuning: Standard (EADGBe)

e|----------------------|     e|--------------|
B|----------------------|     B|--------------|
G|------7-----8-8--6-6--|     G|-4--6--7-6----|
D|-5----7-7-7-8-8--6-6--|     D|-4--6--7-6----|
A|-5----5-7-7-6-6--4-4--|     A|-2--4--5-4----|
E|-3------5-5-----------| x4  E|--------------| x4

e|----------------------|     e|--------------|
B|----------------------|     B|--------------|
G|------7-----8-8--6-6--|     G|-4--6--7-6----|
D|-5----7-7-7-8-8--6-6--|     D|-4--6--7-6----|
A|-5----5-7-7-6-6--4-4--|     A|-2--4--5-4----|
E|-3------5-5-----------| x4  E|--------------| x4

e|---------------------------------|
B|---------------------------------|
G|-7-7-7-7-7-7-7-7-7-7-7-7-7-7-7-7-|
D|-7-7-7-7-7-7-7-7-7-7-7-7-7-7-7-7-|
A|-5-5-5-5-5-5-5-5-5-5-5-5-5-5-5-5-|
E|---------------------------------|

e|----------------------------------------------|
B|----------------------------------------------|
G|------7-----8-8--6-6-------7-----8-8--6-6-----|
D|-5----7-7-7-8-8--6-6--5----7-7-7-8-8--6-6--5--|
A|-5----5-7-7-6-6--4-4--5----5-7-7-6-6--4-4--5--|
E|-3------5-5-----------3------5-5-----------3--|


| /  slide up
| \  slide down
| h  hammer-on
| p  pull-off
| ~  vibrato
| +  harmonic
| x  Mute note
===============================================================================
Добавлено: 26.06.2013
Другие материалы по этой песне:
  • Аккорды и текст

Страница создана 26.06.2013
http://primanota.ru/limp-wrist/relatives-got-nerve-chords.htm
Привет, Гость.
Предлагаем пройти революционный курс по гитаре.
Подарок от PrimaNota.Ru, забирай!