PrimaNota.ru - самый крупный в мире бесплатный архив песенных текстов, аккордов, табулатур и нот


Limp Wrist - Rainbows - таба, видео

Регистрация Запомнить меня
Войти через:  Facebook Google Twitter Vk Yandex Mail.ru

Limp Wrist - Rainbows - таба, видео

Печатать
Просмотров: 63
Alice Nine - Rainbows

Drop D (DADGBE)


Intro
(0:00-0:36)
|------------------------------------------------------------------------|
|------------------------------------------------------------------------|
|------------------------------------------------------------------------|
|------------------------------------------------------------------------|4x
|------5-----5-----8-----3-----------------5-----5-----8-----3-----------|
|--0-0---0-0---0-0---0-0---6-3-5-------0-0---0-0---0-0---0-0---6-5-3-----|

[VERSE]
(0:40)
Guitar 1.
------------------------------------|
------------------------------------|
---5-5-/3-5-5-/3-5-5----------------|
---x-x--x-x-x--x-x-x----------------|
---3-3-/1-3-3-/1-3-3----------------|
------------------------------------|
Guitar 2.
------------------------------------|
------------------------------------|
-------------14-/0---14-/0----------|
--------------x-------x-------------|
-------------12-/0---12-/0----------|
------------------------------------|


Piano part (0:51)
----5---8--10---------5----8---5----|
------------------------------------|
------------------------------------|
------------------------------------|  1x
------------------------------------|
------------------------------------|
Guitar part
------------------------------------|
------------------------------------|
------------------------------------| 6x
------------------------------------|
------10-8/5-----11-10/8------------|
--0-0---------0-0-------------------|

[Chorus] (1:04)
|------------------------------------------------------------------------|
|------------------------------------------------------------------------|
|------------------------------------------------------------------------|
|------------------------------------------------------------------------|
|------5-----5-----8-----3-----------------5-----5-----8-----3-----------|
|--0-0---0-0---0-0---0-0---6-3-5-------0-0---0-0---0-0---0-0---6-5-3-----|

------------------------------------|
------------------------------------|
--3------5------3-------------------| 2x
--x-(8x)-x-(8x)-x-(8x)--------------|
--1------3------1-------------------|
------------------------------------|

|------------------------------------------------------------------------|
|------------------------------------------------------------------------|
|------------------------------------------------------------------------|
|------------------------------------------------------------------------|
|------5-----5-----8-----3-----------------5-----5-----8-----3-----------|
|--0-0---0-0---0-0---0-0---6-3-5-------0-0---0-0---0-0---0-0---6-5-3-----|


[VERSE] (1:43)

[Chorus] (2:07)

(2:37)
---8-7-8-7-8-7-8-10-----------------|
------------------------------------|
------------------------------------| 4x (not sure about this)
------------------------------------|
------------------------------------|
------------------------------------|


SolO (3:06)
|----------------------10-8-------10-8b----|
|----8b-8b---6---6-8-9------6-5-6-------8--|b
|----------7---7---------------------------|
|------------------------------------------|
|------------------------------------------|
|------------------------------------------|

-----------------------------------------|
--6-8-6----------------------------------|
-----------------------------------------|
--------3-5-3--5b------------------------|
-----------------------------------------|
-----------------------------------------|


|------------------------------------------------------------------------|
|------------------------------------------------------------------------|
|------------------------------------------------------------------------|
|------------------------------------------------------------------------|
|------5-----5-----8-----3-----------------5-----5-----8-----3-----------|
|--0-0---0-0---0-0---0-0---6-3-5-------0-0---0-0---0-0---0-0---6-5-3-----|

------------------------------------|
------------------------------------|
--3------5------3-------------------| 2x
--x-(8x)-x-(8x)-x-(8x)--------------|
--1------3------1-------------------|
------------------------------------|

|------------------------------|
|------------------------------|
|--7------5------4------7------| 2x
|--x-(8x)-x-(8x)-x-(8x)-x-(8)--|
|--5------3------2------5------|
|------------------------------|


End Solo
|------------------------------------------|
|---9b-9b--------6---6-8-10-10--13-13-13---|
|---------7--7-5---7------------14-14-14---|
|------------------------------------------|
|------------------------------------------|
|------------------------------------------|


--13-12----15-13-15-17--17-17-|
--------12--------------17-17-|
------------------------------|
------------------------------|
------------------------------|
------------------------------|


|--------|
|--13-10-|
|--------|
|--------|
|--------|
|--------|

Tapping part
|--------------------------------------------|
|-15-10-8--13-10-8--15-10-8--13-10-8--15-13--|
|--------------------------------------------| 4x
|--------------------------------------------|
|--------------------------------------------|
|--------------------------------------------|


End
|--------------------------------------------|
|-----------------------8-10---13-13-13------|
|------10-10-9-10-12-10--------14-14-14------|
|---7----------------------------------------|
|--------------------------------------------|
|--------------------------------------------|
Добавлено: 08.08.2013
Другие материалы по этой песне:
  • Аккорды и текст

Страница создана 08.08.2013
http://primanota.ru/limp-wrist/rainbows-chords.htm
Привет, Гость.
Предлагаем пройти революционный курс по гитаре.
Подарок от PrimaNota.Ru, забирай!