PrimaNota.ru - самый крупный в мире бесплатный архив песенных текстов, аккордов, табулатур и нот


Limp Wrist - Punk Ass Queers - таба, видео

Регистрация Запомнить меня
Войти через:  Facebook Google Twitter Vk Yandex Mail.ru

Limp Wrist - Punk Ass Queers - таба, видео

Печатать
Просмотров: 96
Уроки эстрадного вокала в Санкт-Петербурге
-------------------------------------------------------------------------------
Punk Ass Queers - Limp Wrist
Thee Official Limp Wrist Discography
-------------------------------------------------------------------------------
Tabbed by: axeslash
Email: holmzito@yahoo.com

Tuning: Both guitars standard

Guitar 1:
e|-------------------------------------------------------------------------|
B|-9-9-9-9-9-9-9-9-9-9-9-9-9-9-9-9-9-9-9-9-9-9-9-9-9-9-9-9-9-9-9-9---------|
G|-9-9-9-9-9-9-9-9-9-9-9-9-9-9-9-9-9-9-9-9-9-9-9-9-9-9-9-9-9-9-9-9---------|
D|-9-9-9-9-9-9-9-9-9-9-9-9-9-9-9-9-9-9-9-9-9-9-9-9-9-9-9-9-9-9-9-9---------|
A|-7-7-7-7-7-7-7-7-7-7-7-7-7-7-7-7-7-7-7-7-7-7-7-7-7-7-7-7-7-7-7-7---------|
E|-------------------------------------------------------------------------|

Guitar 1:
e|----------------------------------------------------|
B|----------------------------------------------------|
G|-9--9-9-9-9-9-9-9-9--9-9-9-9-9-9--9-9-9-9-9-9----7--|
D|-9--9-9-9-9-9-9-9-9--9-9-9-9-9-9--9-9-9-9-9-9-5--7--|
A|-7--7-7-7-7-7-7-7-7--7-7-7-7-7-7--7-7-7-7-7-7-5--5--|
E|----------------------------------------------3-----|
Guitar 2:
e|----------------------------------------------------|
B|----------------------------------------------------|
G|-------------------------------------------------7--|
D|----------------------------------------------5--7--|
A|----------------------------------------------5--5--|
E|----------------------------------------------3-----|

Guitar 1:
e|----------------------------------------------------|
B|----------------------------------------------------|
G|-9--9-9-9-9-9-9-9-9--9-9-9-9-9-9--9-9-9-9-9-9----7--|
D|-9--9-9-9-9-9-9-9-9--9-9-9-9-9-9--9-9-9-9-9-9-5--7--|
A|-7--7-7-7-7-7-7-7-7--7-7-7-7-7-7--7-7-7-7-7-7-5--5--|
E|----------------------------------------------3-----|
Guitar 2:
e|----------------------------------------------------|
B|----------------------------------------------------|
G|-9-----------------------------------------------7--|
D|-9--------------------------------------------5--7--|
A|-7--------------------------------------------5--5--|
E|----------------------------------------------3-----|

Guitars 1 & 2:
e|-----------------------------------------------------------------|
B|-----------------------------------------------------------------|
G|-9-9-9-9-9-9-9-9-9-9-9-9-9-9-9-9-9-9-9-9-9-9-9-9---------7-7-7-7-|
D|-9-9-9-9-9-9-9-9-9-9-9-9-9-9-9-9-9-9-9-9-9-9-9-9-5-5-5-5-7-7-7-7-|
A|-7-7-7-7-7-7-7-7-7-7-7-7-7-7-7-7-7-7-7-7-7-7-7-7-5-5-5-5-5-5-5-5-|
E|-------------------------------------------------3-3-3-3---------| x2

Guitars 1 & 2:
e|-----------------------------------------------------------------|
B|-----------------------------------------------------------------|
G|-9-9-9-9-9-9-9-9-7-7-7-7-7-7-7-7---------------------------------|
D|-9-9-9-9-9-9-9-9-7-7-7-7-7-7-7-7-8-8-8-8-8-8-8-8-8-8-8-8-8-8-8-8-|
A|-7-7-7-7-7-7-7-7-5-5-5-5-5-5-5-5-8-8-8-8-8-8-8-8-8-8-8-8-8-8-8-8-|
E|---------------------------------6-6-6-6-6-6-6-6-6-6-6-6-6-6-6-6-|

Guitars 1 & 2:
e|----------------------------------------------------------------------|
B|----------------------------------------------------------------------|
G|-9-9-9-9-9-9-9-9-7-7-7-7-7-7-7-7--------------------------------------|
D|-9-9-9-9-9-9-9-9-7-7-7-7-7-7-7-7-8-8-8-8-8-8-8-8-8-8-8-8-8-8-8-8-4----|
A|-7-7-7-7-7-7-7-7-5-5-5-5-5-5-5-5-8-8-8-8-8-8-8-8-8-8-8-8-8-8-8-8-4----|
E|---------------------------------6-6-6-6-6-6-6-6-6-6-6-6-6-6-6-6-2----|

Guitar 1:
e|----------------------------------------------------|
B|----------------------------------------------------|
G|-9--9-9-9-9-9-9-9-9--9-9-9-9-9-9--9-9-9-9-9-9----7--|
D|-9--9-9-9-9-9-9-9-9--9-9-9-9-9-9--9-9-9-9-9-9-5--7--|
A|-7--7-7-7-7-7-7-7-7--7-7-7-7-7-7--7-7-7-7-7-7-5--5--|
E|----------------------------------------------3-----|
Guitar 2:
e|----------------------------------------------------|
B|----------------------------------------------------|
G|-------------------------------------------------7--|
D|----------------------------------------------5--7--|
A|----------------------------------------------5--5--|
E|----------------------------------------------3-----|

Guitars 1 & 2:
e|-----------------------------------------------------------------|
B|-----------------------------------------------------------------|
G|-9-9-9-9-9-9-9-9-9-9-9-9-9-9-9-9-9-9-9-9-9-9-9-9---------7-7-7-7-|
D|-9-9-9-9-9-9-9-9-9-9-9-9-9-9-9-9-9-9-9-9-9-9-9-9-5-5-5-5-7-7-7-7-|
A|-7-7-7-7-7-7-7-7-7-7-7-7-7-7-7-7-7-7-7-7-7-7-7-7-5-5-5-5-5-5-5-5-|
E|-------------------------------------------------3-3-3-3---------| x2

Guitars 1 & 2:
e|-----------------------------------------------------------------|
B|-----------------------------------------------------------------|
G|-9-9-9-9-9-9-9-9-7-7-7-7-7-7-7-7---------------------------------|
D|-9-9-9-9-9-9-9-9-7-7-7-7-7-7-7-7-8-8-8-8-8-8-8-8-8-8-8-8-8-8-8-8-|
A|-7-7-7-7-7-7-7-7-5-5-5-5-5-5-5-5-8-8-8-8-8-8-8-8-8-8-8-8-8-8-8-8-|
E|---------------------------------6-6-6-6-6-6-6-6-6-6-6-6-6-6-6-6-|

Guitars 1 & 2:
e|----------------------------------------------------------------------|
B|----------------------------------------------------------------------|
G|-9-9-9-9-9-9-9-9-7-7-7-7-7-7-7-7--------------------------------------|
D|-9-9-9-9-9-9-9-9-7-7-7-7-7-7-7-7-8-8-8-8-8-8-8-8-8-8-8-8-8-8-8-8-4----|
A|-7-7-7-7-7-7-7-7-5-5-5-5-5-5-5-5-8-8-8-8-8-8-8-8-8-8-8-8-8-8-8-8-4----|
E|---------------------------------6-6-6-6-6-6-6-6-6-6-6-6-6-6-6-6-2----|

Guitars 1 & 2:
e|---------------------------------------------------------------------------|
B|---------------------------------------------------------------------------|
G|-9--9-9-9-9-9--7--7-7-7-7-7-7-10--10-10-10-10-10-10------------------------|
D|-9--9-9-9-9-9--7--7-7-7-7-7-7-10--10-10-10-10-10-10--10--10-10-10-10-10-10-|
A|-7--7-7-7-7-7--5--5-5-5-5-5-5--8---8--8--8--8--8--8--10--10-10-10-10-10-10-|
E|---[X-X-X-X-X]---[X-X-X-X-X-X]----[X--X--X--X--X--X]--8---8--8--8--8--8--8-|
							   [X--X--X--X--X--X]

Guitars 1 & 2:
e|---------------------------------|    e|----------|
B|---------------------------------|    B|----------|
G|-9-7-10--------------------------|    G|-9--------|
D|-9-7-10--10-10-10-10-10-10-10-10-|    D|-9--------|
A|-7-5--8--10-10-10-10-10-10-10-10-|    A|-7--------|
E|----------8--8--8--8--8--8--8--8-| x4 E|----------|


|[X] palm mute
| /  slide up
| \  slide down
| h  hammer-on
| p  pull-off
| ~  vibrato
| +  harmonic
| x  Mute note
===============================================================================
Добавлено: 13.06.2013
Другие материалы по этой песне:
  • Аккорды и текст

Страница создана 13.06.2013
http://primanota.ru/limp-wrist/punk-ass-queers-chords.htm
Привет, Гость.
Предлагаем пройти революционный курс по гитаре.
Подарок от PrimaNota.Ru, забирай!