PrimaNota.ru - самый крупный в мире бесплатный архив песенных текстов, аккордов, табулатур и нот


Limp Wrist - No Choice - таба, видео

Регистрация Запомнить меня
Войти через:  Facebook Google Twitter Vk Yandex Mail.ru

Limp Wrist - No Choice - таба, видео

Печатать
Просмотров: 81
-------------------------------------------------------------------------------
No Choice - Limp Wrist
Thee Official Limp Wrist Discography
-------------------------------------------------------------------------------
Tabbed by: axeslash
Email: holmzito@yahoo.com

Tuning: Standard

e|------------------|  e|--------------------|
B|------------------|  B|--------------------|
G|------------------|  G|--------------------|
D|-2----------------|  D|-----7-7-9-9/10--10-|
A|-2----------------|  A|-7-7-5-5-7-7/-8---8-|
E|-0----------------|  E|-5-5----------------| x8
                         [X-X-X-X-X]

e|---------------|     e|------------------|
B|---------------|     B|------------------|
G|-9-9-9-9-5-----|     G|-6-6--6-12-12--12-|
D|-9-9-9-9-5--7--|     D|-6-6--6-12-12--12-|
A|-7-7-7-7-3--7--|     A|-4-4--4-10-10--10-|
E|------------5--| x2  E|------------------| x2

e|---------------|     e|------------------|
B|---------------|     B|------------------|
G|-9-9-9-9-5-----|     G|-6-6--6-12-12--12-|
D|-9-9-9-9-5--7--|     D|-6-6--6-12-12--12-|
A|-7-7-7-7-3--7--|     A|-4-4--4-10-10--10-|
E|------------5--| x2  E|------------------| x2

e|------------------|  e|--------------------|
B|------------------|  B|--------------------|
G|------------------|  G|--------------------|
D|-2----------------|  D|-----7-7-9-9/10--10-|
A|-2----------------|  A|-7-7-5-5-7-7/-8---8-|
E|-0----------------|  E|-5-5----------------| x8
                         [X-X-X-X-X]

e|---------------|     e|------------------|
B|---------------|     B|------------------|
G|-9-9-9-9-5-----|     G|-6-6--6-12-12--12-|
D|-9-9-9-9-5--7--|     D|-6-6--6-12-12--12-|
A|-7-7-7-7-3--7--|     A|-4-4--4-10-10--10-|
E|------------5--| x2  E|------------------| x2

e|---------------|     e|------------------|
B|---------------|     B|------------------|
G|-9-9-9-9-5-----|     G|-6-6--6-12-12--12-|
D|-9-9-9-9-5--7--|     D|-6-6--6-12-12--12-|
A|-7-7-7-7-3--7--|     A|-4-4--4-10-10--10-|
E|------------5--| x2  E|------------------| x3

e|-----------------------------------|
B|-----------------------------------|
G|-6-6--6-6-6--6---------------------|
D|-6-6--6-6-6--6-2----------------2--|
A|-4-4--4-4-4--4-2----------------2--|
E|---------------0----------------0--|


| /  slide up
| \  slide down
| h  hammer-on
| p  pull-off
| ~  vibrato
| +  harmonic
| x  Mute note
===============================================================================
Добавлено: 07.12.2013
Другие материалы по этой песне:
  • Аккорды и текст

Страница создана 07.12.2013
http://primanota.ru/limp-wrist/no-choice-chords.htm
Привет, Гость.
Предлагаем пройти революционный курс по гитаре.
Подарок от PrimaNota.Ru, забирай!