PrimaNota.ru - самый крупный в мире бесплатный архив песенных текстов, аккордов, табулатур и нот


Limp Wrist - Give Me A Fuckin Break - таба, видео

Регистрация Запомнить меня
Войти через:  Facebook Google Twitter Vk Yandex Mail.ru

Limp Wrist - Give Me A Fuckin Break - таба, видео

Печатать
Просмотров: 77
-------------------------------------------------------------------------------
Give Me A Fuckin' Break - Limp Wrist
Thee Official Limp Wrist Discography
-------------------------------------------------------------------------------
Tabbed by: axeslash
Email: holmzito@yahoo.com

Tuning: All guitars Standard (EADGBe)

Guitars 1 & 2:
e|-----------------------------|
B|-----------------------------|
G|-9-9-9----10-10-10-----7--7--|
D|-9-9-9-9--10-10-10-10--7--7--|
A|-7-7-7-9---8--8--8-10--5--5--|
E|-------7------------8--------| x4

Guitar 1:		      Guitar 1 & 2:
e|----------------------|     e|----------------------|
B|----------------------|     B|----------------------|
G|-7--7--7--7--4-X------|     G|-7--7--7--7--4-X------|
D|-7--7--7--7--4-X-3----|     D|-7--7--7--7--4-X-3----|
A|-5--5--5--5--2-X-3----|     A|-5--5--5--5--2-X-3----|
E|-----------------1----| x2  E|-----------------1----| x4

Guitars 1 & 2:
e|---------------------------------------------------------|
B|---------------------------------------------------------|
G|----------------4--4-4-4-4-4-4-----------------10--9--7--|
D|-3--3-3-3-3-3-3-4--4-4-4-4-4-4-3-3-3-3-3-3-3-3-10--9--7--|
A|-3--3-3-3-3-3-3-2--2-2-2-2-2-2-3-3-3-3-3-3-3-3--8--7--5--|
E|-1--1-1-1-1-1-1----------------1-1-1-1-1-1-1-1-----------| x2
Guitar Fill:
e|---------------------------------------------------------|
B|----------------7----------------------------------------|
G|----------------9^---------------------------------------|
D|---------------------------------------------------------|
A|---------------------------------------------------------|
E|---------------------------------------------------------| x2

Guitar 1 & 2:
e|----------------------|
B|----------------------|
G|-7--7--7--7--4-X------|
D|-7--7--7--7--4-X-3----|
A|-5--5--5--5--2-X-3----|
E|-----------------1----| x4

Guitars 1 & 2:
e|---------------------------------------------------------|
B|---------------------------------------------------------|
G|----------------4--4-4-4-4-4-4-----------------10--9--7--|
D|-3--3-3-3-3-3-3-4--4-4-4-4-4-4-3-3-3-3-3-3-3-3-10--9--7--|
A|-3--3-3-3-3-3-3-2--2-2-2-2-2-2-3-3-3-3-3-3-3-3--8--7--5--|
E|-1--1-1-1-1-1-1----------------1-1-1-1-1-1-1-1-----------|
Guitar Fill:
e|---------------------------------------------------------|
B|----------------7----------------------------------------|
G|----------------9^---------------------------------------|
D|---------------------------------------------------------|
A|---------------------------------------------------------|
E|---------------------------------------------------------|

Guitars 1 & 2:
e|------------------------------------------------------------------|
B|------------------------------------------------------------------|
G|----------------4--4-4-4-4-4-4-----------------10--9--7-----------|
D|-3--3-3-3-3-3-3-4--4-4-4-4-4-4-3-3-3-3-3-3-3-3-10--9--7--9--------|
A|-3--3-3-3-3-3-3-2--2-2-2-2-2-2-3-3-3-3-3-3-3-3--8--7--5--9--------|
E|-1--1-1-1-1-1-1----------------1-1-1-1-1-1-1-1-----------7--------|
Guitar Fill:
e|------------------------------------------------------------------|
B|----------------7-------------------------------------------------|
G|----------------9^------------------------------------------------|
D|------------------------------------------------------------------|
A|------------------------------------------------------------------|
E|------------------------------------------------------------------|


| ^  whole step note bend
| /  slide up
| \  slide down
| h  hammer-on
| p  pull-off
| ~  vibrato
| +  harmonic
| x  Mute note
===============================================================================
Добавлено: 14.11.2013
Другие материалы по этой песне:
  • Аккорды и текст

Страница создана 14.11.2013
http://primanota.ru/limp-wrist/give-me-a-fuckin-break-chords.htm
Привет, Гость.
Предлагаем пройти революционный курс по гитаре.
Подарок от PrimaNota.Ru, забирай!