PrimaNota.ru - самый крупный в мире бесплатный архив песенных текстов, аккордов, табулатур и нот


Limp Bizkit - The One - аккорды и текст, таба, бас-таба, драм-таба, видео

Регистрация Запомнить меня
Войти через:  Facebook Google Twitter Vk Yandex Mail.ru

Limp Bizkit - The One - аккорды и текст, таба, бас-таба, драм-таба, видео

Печатать
Просмотров: 586
Авторы музыки: John Otto, Wes Borland, Sam Rivers
Авторы текста: Fred Durst
The One
Limp Bizkit
Limp Bizkit - The One

Tuning: Standart

Chords used:

   F#m     F#   A6add9 Emaj9  Esus2  Bsus2    E    C#sus4 Dsus2
e|--2--||--2--||--2--||--2--||--2--||--2--||-----||--4--||--5--|
B|--2--||--2--||--2--||--4--||--5--||--2--||-----||--7--||--5--|
G|--2--||--3--||--2--||--4--||--4--||--4--||--1--||--6--||--7--|
D|--4--||--4--||--2--||--2--||--2--||--4--||--2--||--4--||--7--|
A|--4--||--4--||--2--||--2--||--2--||--2--||--2--||--4--||--5--|
E|--2--||--2--||--2--||--2--||--2--||--2--||-----||--4--||--5--|


It all takes place around F#m

Intro + Refrain

       F#m            A 6add9/E maj9  F#m      Esus2    Emaj9
       v ^ v ^ v ^ v      v Pull      v ^ v ^ v ^ v       v/^  v/^   v
e|(2)------------------------------------------------------------------|
B|(2)----------------------2/5----------------------------2/5---2/5--4-|
G|(2)---------------------2/4----------------------------2/4---4/4---4-|
D|(2)---(4-4-4-4-4-4-4)----------------(4-4-4-4-4-4-4)-----------------|
A|(2)--(4-4-4-4-4-4-4)----------------(4-4-4-4-4-4-4)------------------|
E|(2)--2-2-2-2-2-2-2------------------2-2-2-2-2-2-2--------------------|

Intro + Bridge

  C#sus4  Dsus2  Bsus2

e|----4------5-------2--|
B|---7------5-------2---|
G|--6------7-------4----|
D|-4------7-------4-----|
A|-------5-------2------|
E|--------------2-------|


Refrain

       F#m                                      Esus2                  
 ch]Bsus2[/ch]
       v ^ v ^ v ^ v ^ v ^ v ^ v ^ v ^     Pull ^ v ^ v ^ v ^ v ^ v     v ^ v ^
e|(2)----------------------------------------------------------------------------|
B|(2)--------------------------------------------5-5-5-5-5-5-5-5-5-5-------------|
G|(2)-------------------------------------------4-4-4-4-4-4-4-4-4-4------4-4-4-4-|
D|(2)---(4-4-4-4-4-4-4-4-4-4-4-4-4-4-4-4)------2-2-2-2-2-2-2-2-2-2------4-4-4-4--|
A|(2)--(4-4-4-4-4-4-4-4-4-4-4-4-4-4-4-4)-------------------------------2-2-2-2---|
E|(2)--2-2-2-2-2-2-2-2-2-2-2-2-2-2-2-2-------------------------------------------|

Chorus
         F#                        Bsus2        Emaj9       Esus2  C#sus4
         v ^ ^   v ^    v ^ v v    v ^ v ^ v    ^ v ^ v ^    v ^    v
e|-------2-2-2---2/2----2-2-2-2----2-2-2-2-2----2-2-2-2-2----2-2----4------|
B|------2-2-2---2/2----2-2-2-2----2-2-2-2-2----4-4-4-4-4----5-5----7-------|
G|-----3-3-3---3/3----3-3-3-3----4-4-4-4-4----4-4-4-4-4----4-4----6--------|
D|----4-4-4---4/5----4-4-4-4----4-4-4-4-4----2-2-2-2-2----2-2----4---------|
A|---4-4-4---4/4----4-4-4-4----2-2-2-2-2----2-2-2-2-2----2-2---------------|
E|--2-2-2---4/2----0-2-2-2-------------------------------------------------|



Intro

Refrain

F#m
Dead from all the loneliness
    E          Esus2
And this is how I feel
F#m                          Emaj9         Bsus2
Understanding everything has never been my deal
F#m
Maybe you have crossed my path
   Emaj9          Esus2
To live inside of me
F#m
Or maybe you're the reason why
    E             Bsus2
I'm losing all my decency, Cause

F#m                    Esus2
I believe that you and me
         Bsus2
We could be so...
F#m
Happy and free
         Emaj9         Bsus2
Inside a world of misery
F#m                        Esus2
And I believe that you and me
         Bsus2
We could be so...
F#m                      E
Inside of you, inside of me
      Bsus2
Cause this could be the one

Chorus

F#

Bsus2 Emaj9 Esus2 C#sus4 Bsus2
This could be the one
Bsus2
This could be the one

F#

Bsus2 Emaj9 Esus2 C#sus4
This could be the one

Bridge

          C#sus4  Dsus2   Bsus2
I've been lookin' lookin' lookin'

Refrain

F#m
I've been lookin' for my Mrs Right
    E      Esus2
But she don't exist
F#m
Chemistry is everything
          Emaj9        Bsus2
And we're anything but this
F#m
Maybe I have crossed your path
    E               Esus2
And swept you off your feet
F#m                             E
Or maybe I'm the reason why you cry at night
Bsus2
Before you sleep, Cause

F#m                    Esus2
I believe that you and me
         Bsus2
We could be so...
F#m
Happy and free
         Emaj9         Bsus2
Inside a world of misery
F#m                        Esus2
And I believe that you and me
         Bsus2
We could be so...
F#m                      E
Inside of you, inside of me
      Bsus2
Cause this could be the one

Chorus

F#

Bsus2 Emaj9 Esus2 C#sus4 Bsus2
This could be the one
Bsus2
This could be the one

F#

Bsus2 Emaj9 Esus2 C#sus4
This could be the one

Bridge

C#sus4          Dsus2
But what do you think?
                   Bsus2
We could give it a try
Cause you never know
                  C#sus4
Maybe we could be soul mates
          Dsus2
But maybe not (maybe not)
          Bsus2
But maybe so (maybe so)
If you never try
                  C#sus4
Then you'll never know
                   Dsus2
The grass could be greener (could be)
                                   Bsus2
And it'll always be greener on the other side
C#sus4
But you..
Dsus2
just never (never)
Bsus2
know (know, know)

This could be the one

Chorus (This time included with the 2nd part of the Refrain cause it is played like the 
Chorus, but I rather like it to play it like it is in the Refrain, only a bit harder)

F#                     B
I believe that you and me
         Esus2 C#sus4
We could be    so...
F#
Happy and free
         B        Esus2 C#sus4
Inside a world of misery
F#                         B
And I believe that you and me
         Esus2 C#sus4
We could be    so...
F#                      E
Inside of you, inside of me
      Bsus2
Cause this could be the one

F#

Bsus2 Emaj9 Esus2 C#sus4 Bsus2
This could be the one
Bsus2
This could be the one

F#

Bsus2 Emaj9 Esus2 C#sus4
This could be the one

Bridge
C#sus4
But maybe so (maybe so)
Dsus2
But maybe not (maybe not)
Bsus2
Who knows?

C#sus4  Dsus2   Bsus2

e|------2----|
B|-----2-----|
G|----5------|
D|---4--4--0-|
A|--4--5--2--|
E|-2--5--2---|

End

Or not...

A         G
If you're alone
       A5  G
I know I...
A          G
If you can hide
A5
Then go hide
G
Away
                  A     G
But I want you to stay, hey
            A5    G
And blow me away, away
              A    G
I want you to stay
            A5
And blow me away
G    A5 G
Away
A         G
If you're alone
          A5 G
Don't you cry
A          G
If you can hide
        A5
Then go hide
G
Away
              A     G
I want you to stay, yeah
            A5
And blow me away
G
Your way
              A    G
I want you to stay
            A5   G
And blow me away
A
Away
G    A5  G A G A5
Your way

Tabbed out by JeetJerome
Добавлено: 08.06.2012
Другие материалы по этой песне:

Страница создана 21.02.2012
http://primanota.ru/limp-bizkit/the-one-chords.htm
Привет, Гость.
Предлагаем пройти революционный курс по гитаре.
Подарок от PrimaNota.Ru, забирай!