PrimaNota.ru - самый крупный в мире бесплатный архив песенных текстов, аккордов, табулатур и нот


Limp Bizkit - Stalemate - аккорды и текст, таба, видео

Регистрация Запомнить меня
Войти через:  Facebook Google Twitter Vk Yandex Mail.ru

Limp Bizkit - Stalemate - аккорды и текст, таба, видео

Печатать
Просмотров: 253
Авторы музыки: Limp Bizkit
Авторы текста: Fred Durst
Stalemate
Limp Bizkit
Есть 4 варианта.

 

1-й вариант(обычная настройка-e,B,G,D,A,E. Самый сложный вариант, так как,

            чтобы хорошо звучало приходится расстягивать пальцы).

                                                (пошибче,чем в MY WAY).

                                                       

 

Intro 

G(3)-----------------6----4h6-----------------6---------------------------- 

D(4)------------4----------------------4----------------4h5--------------------- 

A(5)--------4---------------------4----------------------------------- 

E(6)----2---2-----2----2------2---2--------2-------2-------------------------- 

  6-я самая толстая.         

                      (Что такое 4h6 или 4h5 думаю и так все знают.

        Comment:       Если же нет, то песни из к/ф на ссылку

                       музыка из к/ф TERMINATOR, там объяснено).  

           4  

           2  надо играть не вместе,а проходя большим пальцем,сначала по   

                  6-й струне, а затем по 5-й(желательно быстро).

 

 

 

2-й вариант заключается в НАТЯЖЕНИИ 6-й струны.Эта струна настраивается 

в унисон с 9-м ладом 5-й или 4-м ладом 4-й струны. Главное ПЕРЕТЯГИВАЯ 6-ю её не порвать.

                       (Этот вариант играть легче всего).                    

Intro 

G(3)------------------6------4h6---------------6---------------------------- 

D(4)------------4-----------------------4------------4h5--------------------- 

A(5)--------4-----------------------4----------------------------------- 

F#(6)---0---0------0-----0------0---0------0------0-------------------------- 

 

 

 

 

3-й вариант,для тех,кто боится порвать 6-ю струну.Эта струна настраивается

 в унисон с 4-м ладом 5-й или 11-м ладом 4-й струны(т.е.струну в отличии от 2-ого

 варианта нужно РАССТРАИВАТЬ).В игре самый простой способ после 2-ого варианта. 

 

 

Intro 

G(3)--------------------6-------4h6-------------------6---------------------------- 

D(4)-------------4----------------------------4--------------4h5--------------------- 

A(5)--------4-----------------------------4------------------------------------ 

C#(6)---5---5-------5------5----------5---5-------5------5-------------------------- 

 

 

 

 

4-й вариант(сам его я не играл,но кому интересно и кто знает как настраивать,

            может попробовать).

 

Intro 

E-------------------9--------------------------------9----------------- 

B-------------------------12--/--14---------------------------------- 

F#--------7--12p0--------------------------7-12p0------------12--/--13--- 

F#---12--12-----------12-------------12---12------------12------------ 
  

                                  STATUS.
                     

                   Самый сложный...............1-й вариант

                   Менее сложный...............3-й вариант

                   Наиболее простой............2-й вариант      

                                4-й как придётся.
Добавлено: 08.01.2014
Другие материалы по этой песне:

Страница создана 01.03.2012
http://primanota.ru/limp-bizkit/stalemate-chords.htm
Привет, Гость.
Предлагаем пройти революционный курс по гитаре.
Подарок от PrimaNota.Ru, забирай!