PrimaNota.ru - самый крупный в мире бесплатный архив песенных текстов, аккордов, табулатур и нот


Limp Bizkit - Show Me What You Got - аккорды и текст, таба, бас-таба, видео

Регистрация Запомнить меня
Войти через:  Facebook Google Twitter Vk Yandex Mail.ru

Limp Bizkit - Show Me What You Got - аккорды и текст, таба, бас-таба, видео

Печатать
Просмотров: 256
Авторы музыки: John Otto, Wes Borland, Sam Rivers
Авторы текста: Fred Durst
Show Me What You Got
Limp Bizkit
		   t. See http://www..net/faq/ for more information.                     #
#-----------------------------------------------------------------------------#


Limp Bizkit
Show Me What You Got
Tabbed By Justin Bailey undertaker336@hotmail.com


Intro

E-99999999999999999  Play with wah to give it some effect.
B-66666666666666666  Play until "Get the f*ck up!"
G-66666666666666666  Later in the song,it will be "Hey ladies!"
D------------------
A------------------
D------------------

Chorus
E-------------------------------------------------------------
B-------------------------------------------------------------
G-------------------------------------------------------------
D-0-1-0-1-0606----0-1-0-1-0606----0-1-0-1-0606----0-1-0-1-0606
A-0-1-0-1-0606----0-1-0-1-0606----0-1-0-1-0606----0-1-0-1-0606
D 0-1-0-1-0606----0-1-0-1-0606----0-1-0-1-0606----0-1-0-1-0606

Pre-Chorus
E-------------------------------------------------------------
B----------17---18-17-19-18---18-17-19-18---18-17-19-18------- (repeat
G--17-18-19--------------------------------------------------- twice)
D-------------------------------------------------------------
A-------------------------------------------------------------
D-------------------------------------------------------------

Main Pre-Chorus
E-------------------------------------------------------------
B-----------17--18-17-19-18----------17-18-17-19-18-----------
G--17-18-19-----------------17-18-19----------------17-18-19--
D-------------------------------------------------------------
A-------------------------------------------------------------
D-------------------------------------------------------------

E---------------
B-17-18-17-19-18  keep repeating until "Everybody to get the f*ck
G---------------  up!"
D---------------
A---------------
D---------------

Intro Chorus

Pre-Chorus
Main Pre-Chorus
Intro Chorus     
Добавлено: 03.06.2013
Другие материалы по этой песне:

Страница создана 27.04.2012
http://primanota.ru/limp-bizkit/show-me-what-you-got-chords.htm
Привет, Гость.
Предлагаем пройти революционный курс по гитаре.
Подарок от PrimaNota.Ru, забирай!