PrimaNota.ru - самый крупный в мире бесплатный архив песенных текстов, аккордов, табулатур и нот


Limp Bizkit - Re-arranged - аккорды и текст, таба, бас-таба, видео

Регистрация Запомнить меня
Войти через:  Facebook Google Twitter Vk Yandex Mail.ru

Limp Bizkit - Re-arranged - аккорды и текст, таба, бас-таба, видео

Печатать
Просмотров: 499
Уроки эстрадного вокала в Санкт-Петербурге
Авторы музыки: John Otto, Wes Borland, Sam Rivers
Авторы текста: Fred Durst
Re-arranged
Limp Bizkit
		   Intro:
C#---------------------------------------------------------------------------------------
F#---------------------------------------------------------------------------------------
B----------------------------------------------------------------------------------------
E----------------------------------------------------------------------------------------
G#---------------------------------------------------------------------------7-----------
C#-----------7-------5----------------5p7p5--4-------------4p5p4--0----7-----------------
C#---0----7------------------------------------------------------------------------------


Verse:
C#---3--0--------------------3--0--------------------------------------------------------
F#---3--0--------------------3--0--------------------------------------------------------
B----------------------------------------------------------------------------------------
E----------------------------------------------------------------------------------------
G#-------14------14------14------14------14------14------14------14----------------------
C#---------------------------------------------------------------------------------------
C#---12------12------12------12------12------12------12------12--------------------------
(lately i've been skaeptical...)  repeat it all the time.



C#---7-----------------------7--0------------8-------------------------------------------
F#---7-----------------------7--0------------8-------------------------------------------
B----------------------------------------------------------------------------------------
E----------------------------------------------------------------------------------------
G#-------14------14------14------14------14------14------14------14----------------------
C#---------------------------------------------------------------------------------------
C#---12------12------12------12------12------12------12------12--------------------------
(...you don't understand when...)


Chours:
C#---------------------------------------------------------------------------------------
F#---------------------------------------------------------------------------------------
B----------------------------------------------------------------------------------------
E----------------------------------------------------------------------------------------
G#-------14---------------17---------------14--------------------------------------------
C#---------------------------------------------------------------------------------------
C#---12------12---3---15------15---3---12------12----------------------------------------

Bridge:
C#---------------------------------------------------------------------------------------
F#---------------------------------------------------------------------------------------
B----------------------------------------------------------------------------------------
E----------------------------------------------------------------------------------------
G#---------------------------------------------------------------------------------------
C#---------------------------------------------------------------------------------------
C#--12-----------------------------------------------------------------------------------
(...Good for me._____)


C#------------|------------|-------------------------------------------------------------
F#------------|------------|--------------------------------0----------------------------
B-------------|------------|-------------------------------------------------------------
E-------------|11p12-------|----------12----------|-11--12-------------------------------
G#------------|------------|-------------------------------------------------------------
C#------------|------------|-------------------------------------------------------------
C#------------|------------|-------------------------------------------------------------
(Thank god it's over)


C#--------------------------------------------------------------------|------------------
F#------------------0-------------------------------------------------|------------------
B----------------0---------------15--------------------19----------20-|------------------
E---------11p12-------------------------------------------------------|------------------
G#------------------------14p12------------------16---------16p17-----|------------------
C#--------------------------------------------------------------------|------------------
C#--------------------------------------------------------------------|------------------
                                                                       (you make believe)


C#----------------|----------------------|-----------------------------------------------
F#----------------|-12-------------------|--------------------0--------------------------
B-----------------|-15-------------(15)--|--------------0--------------------------------
E-----------------|----------------------|-------11p12-----------------------------------
G#----------------|----------------------|-----------------------------------------------
C#----------------|----------------------|-----------------------------------------------
C#----------------|----------------------|-----------------------------------------------


C#--------------------------------|---------------------|--------------------------------
F#--------------------------------|---------------------|--------------------------------
B----------------17----17---------|--17----------17-----|----------------15--------------
E---------------------------------|---------------------|--------------------------------
G#---14----14------------------14-|--------14-----------|--12----------------------16----
C#--------------------------------|---------------------|--------------------------------
C#--------------------------------|---------------------|--------------------------------
                                (that nothing is wrong)



C#--------------------|---------------------------|--------------------------------------
F#-----0--------------|---------------------------|--------------------------------------
B---------------------|-----------------10----8---|--------------------------------------
E--11p12--------------|---------------------------|--------------------------------------
G#--------------------|---------------------------|--------------------------------------
C#--------------------|---------------------------|--------------------------------------
C#--------------------|---------------------------|--------------------------------------



C#--------------------------------------|---------------------|--------------------------
F#--------------------------------------|---------------------|--------------------------
B---19p20--------20---------------------|------------------17-|------------------17------
E---------------------------------------|--14-----------------|--14----------------------
G#(16)p17-------------------------------|---------------------|--------------------------
C#--------------------------------------|---------------------|--------------------------
C#--------------------------------------|---------------------|--------------------------
                   (and you make believe)


C#---------------------------|--------------|--------------------------------------------
F#---------------------------|--------------|--0-----------------------------------------
B-----7p0--------------------|--0-----------|--------------------------------------------
E----------------------------|--11p12-------|--------------------------------------------
G#---------------------------|--------------|--------------------------------------------
C#---------------------------|--------------|--------------------------------------------
C#---------------------------|--------------|--------------------------------------------


C#-------------------------|--------------------------------------------|----------------
F#------------15-----------|---------19----19-------------20------------|----------------
B--------------------------|--------------------------------------------|----------------
E--------------------------|--------------------------------------------|----------------
G#----12----------------12-|--16----------------16p17-------------------|----------------
C#-------------------------|--------------------------------------------|----------------
C#-------------------------|--------------------------------------------|----------------
   (dyin_______)                                       (You make believe)


C#-------------------------|--------------------------------------------|----------------
F#-------------------------|--------------------------------------------|----------------
B---19p20------------------|---7p8--------------------------------------|----------------
E--------------------------|--------------------------------------------|----------------
G#-------------------------|--------------------------------------------|----------------
C#-------------------------|--------------------------------------------|----------------
C#-------------------------|--------------------------------------------|----------------


Heavy Part:
C#-------------------------|-------------------------------------------------------------
F#-------------------------|-------------------------------------------------------------
B--------------------------|-17---17-17-17-17-----17-17-17-17-17-17----------------------
E--------------------------|-------------------------------------------------------------
G#-------------------------|-14---14-14-14-14-----14-14-14-14-14-14----------------------
C#-------------------------|-------------------------------------------------------------
C#-------------------------|--0----0--0--0--0-----0--0--0--0---0--0----------------------
(...dyin on me...)


C#------------------------------------------|--------------------------------------------
F#------------------------------------------|--------------------------------------------
B--17----17-17-17-17----17-17-17-17---17-17-|--------------------------------------------
E-------------------------------------------|--------------------------------------------
G#-14----14-14-14-14----14-14-14-14---14-14-|-12--12---12--12---12--12--12--12-----------
C#------------------------------------------|--------------------------------------------
C#--0-----0--0--0--0-----0--0--0--0----0--0-|-10--10---10--10---10--10--10--10-----------
  (you think that)                             (ev - ry -


C#-----------------------------------------|---------------------------------------------
F#-----------------------------------------|---------------------------------------------
B------------------------------------------|-17---17-17-17-17----17-17-17-17--17-17------
E------------------------------------------|---------------------------------------------
G#--4----4--4--4--4p5-------5--5--5--5-----|-14---14-14-14-14----14-14-14-14--14-14------
C#-----------------------------------------|---------------------------------------------
C#--2----2--2--2--2p3-------3--3--3--3---0-|--0----0--0--0--0-----0--0--0--0---0--0------
  - bod - y ___________    is the same__)



C#----------------------------------------|----------------------------------------------
F#----------------------------------------|----------------------------------------------
B--17---17-17-17-17----17-17-17-17--17-17-|-17---17-17-17-17----17-17-17-17--17-17-------
E-----------------------------------------|----------------------------------------------
G#-14---14-14-14-14----14-14-14-14--14-14-|-14---14-14-14-14----14-14-14-14--14-14-------
C#----------------------------------------|----------------------------------------------
C#--0----0--0--0--0-----0--0--0--0---0--0-|--0----0--0--0--0-----0--0--0--0---0--0-------
                                                              (I dont think that...


C#-----------------------------------|---------------------------------------------------
F#-----------------------------------|---------------------------------------------------
B------------------------------------|---------------------------------------------------
E------------------------------------|---------------------------------------------------
G#--12---12-----12--12----12--12--12-|--4----4--4--4--4p5-----5--5--5--5-----------------
C#-----------------------------------|---------------------------------------------------
C#--10---10-----10--10----10--10--10-|--2----2--2--2--2p3-----3--3--3--3---0-------------
    an        -        y        -       bod        -         y ______            is like


C#----------------------------------------|----------------------------------------------
F#----------------------------------------|----------------------------------------------
B--17---17-17-17-17----17-17-17-17--17-17-|----------------------------------------------
E-----------------------------------------|-16-------16-------16p17------17----17---17p16
G#-14---14-14-14-14----14-14-14-14--14-14-|----------------------------------------------
C#----------------------------------------|-14-------14-------14p15------15----15---15p14
C#--0----0--0--0--0-----0--0--0--0---0--0-|--0--------0--------0----------0-----0----0---
    you.)


C#------------------------------------|--------------------------------------------------
F#------------------------------------|--------------------------------------------------
B-------------------------------------|--------------------------------------------------
E-------------------------------------|--------------------------------------------------
G#----12---12---12-12----12--12-12----|--4---4--4--4--4p5---5--5--5--5-------------------
C#------------------------------------|--------------------------------------------------
C#----10---10---10-10----10--10-10----|--2---2--2--2--2p3---3--3--3--3---0---------------



C#----------------------------------------|----------------------------------------------
F#----------------------------------------|----------------------------------------------
B--17---17-17-17-17----17-17-17-17--17-17-|----------------------------------------------
E-----------------------------------------|--16---16---16p17--17---17--17p16-------------
G#-14---14-14-14-14----14-14-14-14--14-14-|----------------------------------------------
C#----------------------------------------|--14---14---14p15--14---15--15p14-------------
C#--0----0--0--0--0-----0--0--0--0---0--0-|---0----0----0------0----0---0----------------



C#--------------------------------|------------------------------------------------------
F#--------------------------------|------------------------------------------------------
B---------------------------------|------------------------------------------------------
E---------------------------------|------------------------------------------------------
G#--12---12---12-12----12--12-12--|--4-----4--4--4--4p5----5--5--5--5--------------------
C#--------------------------------|------------------------------------------------------
C#--10---10---10-10----10--10-10--|--2-----2--2--2--2p3----3--3--3--3---0----------------



C#-------------------|------------------|------------------------------------------------
F#-------------------|------------------|------------------------------------------------
B---17--17----17-----|------------------|------------------------------------------------
E--------------------|-16---16----16p17-|-17p16----16------------------------------------
G#--14--14----14-----|------------------|------------------------------------------------
C#-------------------|-14---14----14p15-|-15p14----14------------------------------------
C#---0---0-----0-----|--0----0-----0----|--0--------0------------------------------------



C#------------------|----------|--------|--------------|---------------------------------
F#------------------|----------|--------|--------------|---------------------------------
B-----16---16----16-|-16-------|--------|--------------|---------------------------------
E-------------------|----------|--------|--------------|---------------------------------
G#----14---14----14-|-14-------|--------|--------------|---------------------------------
C#------------------|----------|--------|--------------|---------------------------------
C#-----0----0-----0-|--0-------|--------|--------------|---------------------------------



C#----3p0--------------3p0---------------------------|
F#----3p0--------------3p0---------------------------|
B----------------------------------------------------|
E----------------------------------------------------|
G#------14----14----14----14----14----14----14----14-|
C#---------------------------------------------------|
C#---12----12----12----12----12----12----12----12----|
    PLAY TI 4 TIMES!!!!!!!!!!!



C#---3-----------------------------------------------|
F#---3-----------------------------------------------|
B----------------------------------------------------|
E----------------------------------------------------|
G#------14----14----14----14----14----14----14----14-|
C#---------------------------------------------------|
C#---12----12----12----12----12----12----12----12----|
    REPEAT THIS!!!!!!!!!!!!!!!!



C#----------------------------|------------------|-----------------------------------|---
F#----------------------------|------------------|-----------------------------------|---
B-----------------------------|------------------|-----------------------------------|---
E-----------------------------|------------------|-----------------------------------|---
G#------14----14----------14--|------------14----|-----14--------------------------14|---
C#----------------------------|------------------|-----------------------------------|---
C#---12----12----12----12-----|---------12-------|--12----12----12----12--------12---|-12
   REPEAT THIS, TOO!!!!!!!!!!!!!!!!!!!!     
Добавлено: 13.07.2013
Другие материалы по этой песне:
  • Аккорды и текст

Страница создана 20.03.2012
http://primanota.ru/limp-bizkit/re-arranged-2-chords.htm
Привет, Гость.
Предлагаем пройти революционный курс по гитаре.
Подарок от PrimaNota.Ru, забирай!