PrimaNota.ru - самый крупный в мире бесплатный архив песенных текстов, аккордов, табулатур и нот


Limp Bizkit - Mission Impossible 2 Theme - текст песни, таба, видео

Регистрация Запомнить меня
Войти через:  Facebook Google Twitter Vk Yandex Mail.ru

Limp Bizkit - Mission Impossible 2 Theme - текст песни, таба, видео

Печатать
Просмотров: 192
Limp Bizkit - Take A Look Around (Mission Impossible 2 Theme)

KEY
===
p = pull off
~ = let ring
X = palm mute
* = metal distortion
% = clean with delay
@ = slight overdrive with delay

INTRO:

E-|------------------------------------------|
B-|------------------------------------------|
Gb|------------------------------------------| Play 8x %
C#|----------------5--7p5--------------------|
G#|-7--7--7--7-7-----------7--7--7--7-7--5-6-|
C#|------------------------------------------|

Verse:

E-|---14p11----14p11----14p11---14p11-------------------|
B-|---------11-------10-------9-------12---12-12-11-11~-|
Gb|-----------------------------------------------------| Play 2x @
C#|-----------------------------------------------------|
G#|-----------------------------------------------------|
C#|-----------------------------------------------------|

Riff 1:

E-|------------------------------------------|
B-|------------------------------------------|
Gb|------------------------------------------| Play 2x %
C#|----------------5--7p5--------------------|
G#|-7--7--7--7-7-----------7--7--7--7-7--5-6-|
C#|------------------------------------------|

Verse:

E-|-14p11----14p11----14p11---14p11-------------------|
B-|-------11-------10-------9-------12---12-12-11-11~-|
Gb|---------------------------------------------------| Play 2x @
C#|---------------------------------------------------|
G#|---------------------------------------------------|
C#|---------------------------------------------------|


CHORUS:

C#|-0-2--0-2--0-2--0-2---5--7---0-2--0-2--0-2--0-2---0-1-| Play 4x *

E-|-------------------------------------------------------|
B-|-------------------------------------------------------|
Gb|-------------------------------------------------------|
C#|-0-2--0-2--0-2--0-2---5--7---0-2--0-2--0-2--0-2---0--1-| Play 2x *
G#|-0-2--0-2--0-2--0-2---5--7---0-2--0-2--0-2--0-2---0--1-|
C#|-0-2--0-2--0-2--0-2---5--7---0-2--0-2--0-2--0-2---0--1-|

E-|-------------------------------------------------------|
B-|-------------------------------------------------------|
Gb|-------------------------------------------------------|
C#|-X-2--X-2--0-2--0-2---5--7---X-2--X-2--0-2--0-2---0--1-| Play 2x *
G#|-X-2--X-2--0-2--0-2---5--7---X-2--X-2--0-2--0-2---0--1-|
C#|-X-2--X-2--0-2--0-2---5--7---X-2--X-2--0-2--0-2---0--1-|

E-|------------------------------------------|
B-|------------------------------------------|
Gb|------------------------------------------| Play 2x %
C#|----------------5--7p5--------------------|
G#|-7--7--7--7-7-----------7--7--7--7-7--5-6-|
C#|------------------------------------------|


E-|-14p11----14p11----14p11---14p11-------------------|
B-|-------11-------10-------9-------12---12-12-11-11~-|
Gb|---------------------------------------------------| Play 4x @
C#|---------------------------------------------------|
G#|---------------------------------------------------|
C#|---------------------------------------------------|

C#|-0-2--0-2--0-2--0-2---5--7---0-2--0-2--0-2--0-2---0-1-| Play 4x *

E-|-------------------------------------------------------|
B-|-------------------------------------------------------|
Gb|-------------------------------------------------------| Play 2x *
C#|-0-2--0-2--0-2--0-2---5--7---0-2--0-2--0-2--0-2---0--1-|
G#|-0-2--0-2--0-2--0-2---5--7---0-2--0-2--0-2--0-2---0--1-|
C#|-0-2--0-2--0-2--0-2---5--7---0-2--0-2--0-2--0-2---0--1-|

E-|-------------------------------------------------------|
B-|-------------------------------------------------------|
Gb|-------------------------------------------------------|
C#|-X-2--X-2--0-2--0-2---5--7---X-2--X-2--0-2--0-2---0--1-| Play 2x *
G#|-X-2--X-2--0-2--0-2---5--7---X-2--X-2--0-2--0-2---0--1-|
C#|-X-2--X-2--0-2--0-2---5--7---X-2--X-2--0-2--0-2---0--1-|

E-|-------------------------------|
B-|-------------------------------|
Gb|-------------------------------|
C#|-2----2---5--7---2----2---0--1-| Play 2x *
G#|-2----2---5--7---2----2---0--1-|
C#|-2----2---5--7---2----2---0--1-|

Riff 2:

E-|-------------------------------| Play 4x % and 4x *
B-|-------------------------------|
Gb|-------------------------------| [On 8th time where ^
C#|------------5-7p5--------------| is bend and let ring
G#|----7--7-7--------7^--7-7--5-6-| and go into chorus]
C#|-------------------------------|

E-|-------------------------------------------------------|
B-|-------------------------------------------------------|
Gb|-------------------------------------------------------| Play 2x *
C#|-0-2--0-2--0-2--0-2---5--7---0-2--0-2--0-2--0-2---0--1-|
G#|-0-2--0-2--0-2--0-2---5--7---0-2--0-2--0-2--0-2---0--1-|
C#|-0-2--0-2--0-2--0-2---5--7---0-2--0-2--0-2--0-2---0--1-|

E-|-------------------------------------------------------|
B-|-------------------------------------------------------|
Gb|-------------------------------------------------------|
C#|-X-2--X-2--0-2--0-2---5--7---X-2--X-2--0-2--0-2---0--1-| Play 2x *
G#|-X-2--X-2--0-2--0-2---5--7---X-2--X-2--0-2--0-2---0--1-|
C#|-X-2--X-2--0-2--0-2---5--7---X-2--X-2--0-2--0-2---0--1-|

E-|-14p11----14p11----14p11---14p11-------------------|
B-|-------11-------10-------9-------12---12-12-11-11~-|
Gb|---------------------------------------------------| Play 4x @
C#|---------------------------------------------------|
G#|---------------------------------------------------|
C#|---------------------------------------------------|
Добавлено: 08.03.2012
Другие материалы по этой песне:
  • Аккорды и текст

Страница создана 08.03.2012
http://primanota.ru/limp-bizkit/mission-impossible-2-theme-chords.htm
Привет, Гость.
Предлагаем пройти революционный курс по гитаре.
Подарок от PrimaNota.Ru, забирай!