PrimaNota.ru - самый крупный в мире бесплатный архив песенных текстов, аккордов, табулатур и нот


Limp Bizkit - Let Me Down - текст песни, таба, видео

Регистрация Запомнить меня
Войти через:  Facebook Google Twitter Vk Yandex Mail.ru

Limp Bizkit - Let Me Down - текст песни, таба, видео

Печатать
Просмотров: 113
Авторы: John Otto, Fred Durst, Sam Rivers

Band: Limp Bizkit
Album: Results May Vary
Song: Let Me Down

Drop B Tuning (Low to high B F# B E G# C#)
There are two guitars in this song, but it only comes in the bridge
(or it may be dubbed over the song on one guitar)
()=harmonic
*=palm-mute

The guitar doens't play in the verse

Pre-chorus (i don't know what effect is being used) "When that's whats wrong..."
C#-----------------|
G#-----------------|
E--7-6-9-7-6h7-6h7-|
B------------------|
F#-----------------|
B------------------|

Fill before chorus w/distortion
C#-------------------------------------------------|
G#-------------------------------------------------|
E--------------------------------------------------|
B--12-12-12-11-11-11-12-12-12-11-11-11-12-12-11-11-|
F#-12-12-12-11-11-11-12-12-12-11-11-11-12-12-11-11-|
B--12-12-12-11-11-11-12-12-12-11-11-11-12-12-11-11-|

Chorus(figure out strumming pattern)  "Just throw it all away, you let me down
C#---------------------------------|
G#---------------------------------|
E----------------------------------|
B--7-7-7-7-7-7-7-7-0-0-0-0-0-5-5-4-|
F#-7-7-7-7-7-7-7-7-0-0-0-0-0-0-0-0-|
B--7-7-7-7-7-7-7-7-0-0-0-0-0-0-0-0-|
                             ^ ^ ^These bits will be a bit hard to hear

Then the verse
Then the pre-chorus
Then the chorus

Leading out of the second chorus
C#----------------------------------------------------|
G#----------------------------------------------------|
E-----------------------------------------------------|
B--12-12-12-11-11-11-12-12-12-11-11-11-12-12-11-11-12-|
F#-12-12-12-11-11-11-12-12-12-11-11-11-12-12-11-11-12-|
B--12-12-12-11-11-11-12-12-12-11-11-11-12-12-11-11-12-|
                                                   ^^Let ring

Bridge  Guitar 1
C#-------------------------------------|
G#-------------------------------------|
E--------------------------------------|
B--5--5--5--4--4--4--5--5--5--7--7--7--|
F#---5--5-5---5--5-5---5--5-5---5--5-5-|
B--------------------------------------|
   *slight p/m

Bridge  Guitar 2 (played clean, figure out where they come in)
C#---------------------------------------------------------------------------------------------|
G#---------------------------------------------------------------------------------------------|
E------------(5)---------------------(5)--------------------------------(5)--------------------|
B--(2.2)----------(2.2)--------(2.2)-----(2.2)-(9)--(2.2)---------(2.2)------(2.2)-(9)--(2.2)--|
F#------(3)-------------(3)-------------------------------(3)----------------------------------|(3)
B----------------------------------------------------------------------------------------------|
The section above is DEFINITELY correct, i've tried it, you just need to know when they come in

Leading out of the bridge
C#--------------------------------------------------------------|
G#--------------------------------------------------------------|
E---------------------------------------------------------------|
B---------------------------------------------------------------|
F#-5554445554445544555444555444554455544455544455445554445554445|
B---------------------------------------------------------------|
   ********************************

Then the chorus x2

Outro
C#---------------------------------------------------|
G#---------------------------------------------------|
E----------------------------------------------------|
B--12-12-12-11-11-11-12-12-12-11-11-11-12-12-11-11-7-|
F#-12-12-12-11-11-11-12-12-12-11-11-11-12-12-11-11-7-|
B--12-12-12-11-11-11-12-12-12-11-11-11-12-12-11-11-7-|
                                                   ^end with this chord
Добавлено: 31.10.2015
Другие материалы по этой песне:

Страница создана 07.03.2012
http://primanota.ru/limp-bizkit/let-me-down-chords.htm
Привет, Гость.
Предлагаем пройти революционный курс по гитаре.
Подарок от PrimaNota.Ru, забирай!