PrimaNota.ru - самый крупный в мире бесплатный архив песенных текстов, аккордов, табулатур и нот


Limp Bizkit - Let It Go - текст песни, таба, видео

Регистрация Запомнить меня
Войти через:  Facebook Google Twitter Vk Yandex Mail.ru

Limp Bizkit - Let It Go - текст песни, таба, видео

Печатать
Просмотров: 59
Band: Limp Bizkit
Song: Let It Go
Album: Results May Vary
Tuning Drop B
Low to high    B F# B E G# C#


When the vocals come in I think it's the bass playing and then this comes in. But if you want you can just play 
the lowest notes of the these chords. 

alternate picking here
|------------------------------|---------------------------------|            
|------------------------------|---------------------------------|          
|-9-9-9---9-9-9---10-10--10-10-|--9-9-9---9-9-9---10-10-10-10----|          
|-9-9-9---9-9-9---10-10--10-10-|--9-9-9---9-9-9---10-10-10-10----|    
|-7-7-7---7-7-7---7--7---7---7-|--7-7-7---7-7-7---7---7--7---7---|       
|-7-7-7---7-7-7---7--7---7---7-|--7-7-7---7-7-7---7---7--7---7---| 


|-----------------------|----------------------------|      
|-----------------------|----------------------------|     
|-7-7-7--7-7-7--7-7-7-7-|-7-7-7--7-7-7--7-7-7-7------|         
|-7-7-7--7-7-7--7-7-7-7-|-7-7-7--7-7-7--7-7-7-7------|         
|-5-5-5--5-5-5--5-5-5-5-|-5-5-5--5-5-5--5-5-5-5------|      
|-5-5-5--5-5-5--5-5-5-5-|-5-5-5--5-5-5--5-5-5-5------|    

Chorus   alternate picking here
|-------------------------------------|    
|-------------------------------------|         
|-------------------------------------|    
|-----------2-2-2-2-3-3-3-3-2-2-2-2---|     
|-0-0-0-0-----------------------------|       
|-------------------------------------|      


interlude
downstrokes here
|--------------------------------------------------------------|
|--------------------------------------------------------------|       
|-------------------------19----------17--------16-------14^---|     
|--------------------------x-----------x---------x--------x----|       
|-------------------------17----------15--------14-------12^---|        
|--------------0-0-0-0-------0-0-0-------0-0------0-0----------|      
 slight PM     . . . .       . . .       . .      . .




|-------------------------------------------------------|
|-------------------------------------------------------|       
|-------------------------19----------17--------16^-----|     
|--------------------------x------------x---------x-----|       
|-------------------------17----------15--------14^-----|        
|--------------0-0-0-0-------0-0-0-------0-0------------|      
 slight PM     . . . .       . . .       . .         

let open B ring out 


I use wah wah for this part.

|-----------------------------------------------|
|-----------------------------------------------|
|-----------------------------------------------|   
|-----------------------------------------------|   
|-7-5-7-5-7-5-7-5--/15--12--10--12--10--12------|   
|-----------------------------------------------|   

Theres some parts played under this but its too quiet and unclear to tab.
|-------------------------|   
|-------------------------|  
|-------------------------|    
|-7-7------5-5----3-------|     
|-7-7------5-5----3-------|   
|-7-7------5-5----3-------|

|-----------------------|   
|-----------------------|  
|-------R--------R------|    
|-7-7---E---5-5--E--3---|     
|-7-7---S---5-5--S--3---|   
|-7-7---T---5-5--T--3---|
Добавлено: 31.10.2015
Другие материалы по этой песне:

Страница создана 22.06.2012
http://primanota.ru/limp-bizkit/let-it-go-chords.htm
Привет, Гость.
Предлагаем пройти революционный курс по гитаре.
Подарок от PrimaNota.Ru, забирай!