PrimaNota.ru - самый крупный в мире бесплатный архив песенных текстов, аккордов, табулатур и нот


Limp Bizkit - Clunk - аккорды и текст, таба, бас-таба, драм-таба, видео

Регистрация Запомнить меня
Войти через:  Facebook Google Twitter Vk Yandex Mail.ru

Limp Bizkit - Clunk - аккорды и текст, таба, бас-таба, драм-таба, видео

Печатать
Просмотров: 318
Авторы музыки: Limp Bizkit
Авторы текста: Fred Durst
Clunk
Limp Bizkit
INTRO:
 
E|-----------------|-----------------|-----|-------|---|
B|-----------------|-----------------|-----|-------|---|
G|-----------------|-----------------|-----|-------|-9-|
D|-----------------|-----------------|-----|-------|-7-|
A|2----3---5--4--3-|---2----3-----5-3|-----|------5|---|
E|0----1---3--2--1-|---0----1-----3-1|-----|-------|---|

VERSE:
hey mister elevate that mic........
E|--------------------------|--------------------------------------|
B|--------------------------|--------------------------------------|
G|--------------------------|--------------------------------------|
D|--------------------------|--------------------------------------|
A|2--3--0--2--3-------------|-2--3--0--2---3-----------------------|
E|2--3--0--2--3-------------|-2--3--0--2---3--0----0----0-0---0--0-|

CHORUS:
and never will.....
E|--------------|-----------------------------------------------|
B|--------------|-----------------------------------------------|
G|9-------8b----|-----------------------------------------------|
D|--------------|-----------------------------------------------|
A|7-------6b----|-----------------------------------------------|
E|--------------|-0--2--3--0--2--3-----0----0--2--3--0--3--2--0-|

its gone too far......
E|-------------|--------------|----------------------|---------------------|
B|-------------|--------------|----------------------|---------------------|
G|-------------|-9------8-----|----------------------|---------------------|
D|-------------|--------------|----------------------|---------------------|
A|-------------|-7------6-----|--1-----3----3--2---1-|-------------3-----2-|
E|-------------|--------------|--1-----3----3--2---1-|------0------3-----2-|

its gone too.....you need to drop that freak............
E|-------------|
B|-------------|
G|-9---------8-|
D|-------------|
A|-7---------6-|
E|-------------|

BRIDGE:
it's not too late dude........
E|5---7---0---8---7----0---10--|---0---8---0---7---7/8---7---5----7-|
B|0---0---0---0---0----0---0---|---0---0---0---0----/0---0---0----0-|
G|7---5---0---6---5----0---8---|---0---6---0---5---5/6---5---3----5-|
D|-----------------------------|------------------------------------|
A|-----------------------------|------------------------------------|
E|-----------------------------|------------------------------------|

THE LAST 2 BARS IN THE BRIDE ARE PLAYED A COUPLE OF
TIMES EXTRA THAN WHAT I HAVE WROTE WORK IT OUT.
E|----5---7---0----8---7---0---10-|
B|----0---0---0----0---0---0---0--|
G|----3---5---0----6---5---0---8--|
D|--------------------------------|
A|--------------------------------|
E|--------------------------------|

OUTRO:PLAY THIS 6 TIMES
NO!!!!! (DRUMS AND BASS SPOKEN HERE!)
E|-----------------------------------------|
B|-----------------------------------------|
G|-----------------------------------------|
D|-----------------------------------------|
A|---------------h--------------------h----|
E|1--0----0--0---1--0---1--0---0--0---1--0-|
Добавлено: 12.01.2014
Другие материалы по этой песне:

Страница создана 26.02.2012
http://primanota.ru/limp-bizkit/clunk-chords.htm
Привет, Гость.
Предлагаем пройти революционный курс по гитаре.
Подарок от PrimaNota.Ru, забирай!