PrimaNota.ru - самый крупный в мире бесплатный архив песенных текстов, аккордов, табулатур и нот


Lime Cordiale - Hanging Upside Down - таба, видео

Регистрация Запомнить меня
Войти через:  Facebook Google Twitter Vk Yandex Mail.ru

Lime Cordiale - Hanging Upside Down - таба, видео

Печатать
Просмотров: 152
-------------------------------------------------------------------------------
                             Hanging Upside Down - Lime Cordiale
-------------------------------------------------------------------------------
Tabbed by: A. Leeds

Tuning: EADGBe

Intro: 
Just noodle around the Fm, the guitar doesn't do much here.

      Fm
e|-----8---------------------------------------------------------------------|
B|-----9---------------------------------------------------------------------|
G|----10---------------------------------------------------------------------|
D|----10---------------------------------------------------------------------|
A|-----8---------------------------------------------------------------------|
E|-----x---------------------------------------------------------------------|

Verse:

      Adore..                         Goose bumps...       
      Fm     Cm    C#maj7     ...     Fm   Cm   Cm   C#maj7
e|-----8------2------4-----------------8----8----2------4--------------------|
B|-----9------3------6-----------------9----8----3------6--------------------|
G|----10------4------5----------------10----8----4------5--------------------|
D|----10------4------6----------------10---------4------6--------------------|
A|-----8------2------4-----------------8---------2------4--------------------|
E|---------------------------------------------------------------------------|

        Your...                      Is this...
      Eb     Cm    C#maj7            Eb     Fm   Cm    C#maj7  
e|-----6------2------4----------------6------8----2-------4------------------|
B|-----8------3------6----------------8------9----3-------6------------------|
G|-----8------4------5----------------8-----10----4-------5------------------|
D|-----8------4------6----------------8-----10----4-------6------------------|
A|-----6------2------4----------------6------8----2-------4------------------|
E|---------------------------------------------------------------------------|

Chorus:

    Everything is looking up.. I'll come around, come around
    Fm                    G#                           Bbm
e|---8--------------------4----------------------------6---------------------|
B|---9--------------------4----------------------------6---------------------|
G|--10--------------------5----------------------------6---------------------|
D|--10--------------------6----------------------------8---------------------|
A|---8--------------------6----------------------------8---------------------|
E|------------------------4----------------------------6---------------------|

    Everything is looking up.. Pull me up, pull me up, I'm upside down.
    Fm                    G#                           Bbm
e|---8--------------------4----------------------------6---------------------|
B|---9--------------------4----------------------------6---------------------|
G|--10--------------------5----------------------------6---------------------|
D|--10--------------------6----------------------------8---------------------|
A|---8--------------------6----------------------------8---------------------|
E|------------------------4----------------------------6---------------------|

      Hang me      up the   right way, right way round
    Bbm        Eb         Fm           Fm    Cm   Bbm
e|---------------------------------------------------------------------------|
B|---------------------------------------------------------------------------|
G|------------8-8-------10-10----------10------------------------------------|
D|--8-8-------8-8-------10-10----------10----10---8-8------------------------|
A|--8-8-------6-6--------8--8-----------8----10---8-8------------------------|
E|--6-6---------------------------------------8---6-6------------------------|

      Hang me      up the   right way, right way round
    Bbm        Eb         Fm           Fm    Cm   Fm
e|-------------------------------------------------1-------------------------|
B|-------------------------------------------------1-------------------------|
G|------------8-8-------10-10----------10----------1-------------------------|
D|--8-8-------8-8-------10-10----------10----10----2-------------------------|
A|--8-8-------6-6--------8--8-----------8----10----2-------------------------|
E|--6-6---------------------------------------8----1-------------------------|

Verse 2:
Guitar doesn't do much for a bit, chill on the Fm again but short lick goes like:

e|---------------------------------------------------------------------------|
B|---------------------------------------------------------------------------|
G|----------1----------------------------------------------------------------|
D|----3--1------3--1--3------------------------------------------------------|
A|---------------------------------------------------------------------------|
E|---------------------------------------------------------------------------|

  Adore..                         Goose bumps...       
      Fm     Cm    C#maj7     ...      Fm   Cm   Cm   C#maj7
e|-----8------2------4-----------------8----8----2------4--------------------|
B|-----9------3------6-----------------9----8----3------6--------------------|
G|----10------4------5----------------10----8----4------5--------------------|
D|----10------4------6----------------10---------4------6--------------------|
A|-----8------2------4-----------------8---------2------4--------------------|
E|---------------------------------------------------------------------------|

        Your...                      Is this...
      Eb     Cm    C#maj7             Eb     Fm   Cm    C#maj7  
e|-----6------2------4----------------6------8----2-------4------------------|
B|-----8------3------6----------------8------9----3-------6------------------|
G|-----8------4------5----------------8-----10----4-------5------------------|
D|-----8------4------6----------------8-----10----4-------6------------------|
A|-----6------2------4----------------6------8----2-------4------------------|
E|---------------------------------------------------------------------------|


Chorus:

    Everything is looking up.. I'll come around, come around
    Fm                    G#                           Bbm
e|---8--------------------4----------------------------6---------------------|
B|---9--------------------4----------------------------6---------------------|
G|--10--------------------5----------------------------6---------------------|
D|--10--------------------6----------------------------8---------------------|
A|---8--------------------6----------------------------8---------------------|
E|------------------------4----------------------------6---------------------|

    Everything is looking up.. Pull me up, pull me up, I'm upside down.
    Fm                    G#                           Bbm
e|---8--------------------4----------------------------6---------------------|
B|---9--------------------4----------------------------6---------------------|
G|--10--------------------5----------------------------6---------------------|
D|--10--------------------6----------------------------8---------------------|
A|---8--------------------6----------------------------8---------------------|
E|------------------------4----------------------------6---------------------|

      Hang me      up the   right way, right way round
    Bbm        Eb         Fm           Fm    Cm   Bbm
e|---------------------------------------------------------------------------|
B|---------------------------------------------------------------------------|
G|------------8-8-------10-10----------10------------------------------------|
D|--8-8-------8-8-------10-10----------10----10---8-8------------------------|
A|--8-8-------6-6--------8--8-----------8----10---8-8------------------------|
E|--6-6---------------------------------------8---6-6------------------------|

      Hang me      up the   right way, right way round
    Bbm        Eb         Fm           Fm    Cm   Fm
e|-------------------------------------------------1-------------------------|
B|-------------------------------------------------1-------------------------|
G|------------8-8-------10-10----------10----------1-------------------------|
D|--8-8-------8-8-------10-10----------10----10----2-------------------------|
A|--8-8-------6-6--------8--8-----------8----10----2-------------------------|
E|--6-6---------------------------------------8----1-------------------------|



BRIDGE:
                                
      Fm     Cm    C#maj7     ...     Fm   Cm   Cm   C#maj7
e|-----8------2------4-----------------8----8----2------4--------------------|
B|-----9------3------6-----------------9----8----3------6--------------------|
G|----10------4------5----------------10----8----4------5--------------------|
D|----10------4------6----------------10---------4------6--------------------|
A|-----8------2------4-----------------8---------2------4--------------------|
E|---------------------------------------------------------------------------|

    
      Eb     Cm    C#maj7            Eb     Fm   Cm    C#maj7  
e|-----6------2------4----------------6------8----2-------4------------------|
B|-----8------3------6----------------8------9----3-------6------------------|
G|-----8------4------5----------------8-----10----4-------5------------------|
D|-----8------4------6----------------8-----10----4-------6------------------|
A|-----6------2------4----------------6------8----2-------4------------------|
E|---------------------------------------------------------------------------|



END ON CHORUS



************************************

| /   slide up
| \   slide down
| h   hammer-on
| p   pull-off
| ~   vibrato
| +   harmonic
| x   Mute note
| b   Bend
| pb  Pre-bend
| br  Bend release
| pbr Pre-bend release
| brb Bend release bend

************************************
Добавлено: 24.11.2015
Другие материалы по этой песне:
  • Аккорды и текст

Страница создана 24.11.2015
http://primanota.ru/lime-cordiale/hanging-upside-down-chords.htm
Привет, Гость.
Предлагаем пройти революционный курс по гитаре.
Подарок от PrimaNota.Ru, забирай!